ISO-10303-21;
HEADER;
FILE_DESCRIPTION (( 'STEP AP203' ),
    '1' );
FILE_NAME ('4188M004.STEP',
    '2020-06-04T14:23:12',
    ( '' ),
    ( '' ),
    'SwSTEP 2.0',
    'SolidWorks 2019',
    '' );
FILE_SCHEMA (( 'CONFIG_CONTROL_DESIGN' ));
ENDSEC;

DATA;
#1 = APPROVAL_PERSON_ORGANIZATION ( #123, #234, #85 ) ;
#2 = CYLINDRICAL_SURFACE ( 'NONE', #83, 9.525000000000000355 ) ;
#3 = DATE_TIME_ROLE ( 'creation_date' ) ;
#4 = DIRECTION ( 'NONE',  ( -0.0000000000000000000, -1.000000000000000000, -0.0000000000000000000 ) ) ;
#5 = CIRCLE ( 'NONE', #197, 4.737099999999999866 ) ;
#6 = MECHANICAL_CONTEXT ( 'NONE', #172, 'mechanical' ) ;
#7 = AXIS2_PLACEMENT_3D ( 'NONE', #174, #65, #212 ) ;
#8 = CARTESIAN_POINT ( 'NONE',  ( 5.801274352240927923E-16, 0.0000000000000000000, -4.737099999999999866 ) ) ;
#9 = PERSON_AND_ORGANIZATION_ROLE ( 'creator' ) ;
#10 = PRODUCT_RELATED_PRODUCT_CATEGORY ( 'detail', '', ( #125 ) ) ;
#11 = SECURITY_CLASSIFICATION_LEVEL ( 'unclassified' ) ;
#12 = ORIENTED_EDGE ( 'NONE', *, *, #56, .F. ) ;
#13 = CIRCLE ( 'NONE', #37, 9.525000000000000355 ) ;
#14 = EDGE_LOOP ( 'NONE', ( #55, #12 ) ) ;
#15 = APPROVAL ( #184, 'UNSPECIFIED' ) ;
#16 = ORIENTED_EDGE ( 'NONE', *, *, #33, .F. ) ;
#17 = CARTESIAN_POINT ( 'NONE',  ( 0.0000000000000000000, 0.0000000000000000000, 0.0000000000000000000 ) ) ;
#18 = DIRECTION ( 'NONE',  ( 0.0000000000000000000, 0.0000000000000000000, 1.000000000000000000 ) ) ;
#19 = MANIFOLD_SOLID_BREP ( 'Cut-Extrude1', #140 ) ;
#20 = DIRECTION ( 'NONE',  ( 0.0000000000000000000, 1.000000000000000000, 0.0000000000000000000 ) ) ;
#21 = LINE ( 'NONE', #248, #143 ) ;
#22 = EDGE_LOOP ( 'NONE', ( #111, #221 ) ) ;
#23 = CARTESIAN_POINT ( 'NONE',  ( 0.0000000000000000000, 0.0000000000000000000, 0.0000000000000000000 ) ) ;
#24 = LOCAL_TIME ( 10, 23, 12.00000000000000000, #198 ) ;
#25 = APPROVAL_DATE_TIME ( #48, #234 ) ;
#26 =( NAMED_UNIT ( * ) PLANE_ANGLE_UNIT ( ) SI_UNIT ( $, .RADIAN. ) );
#27 = PERSON_AND_ORGANIZATION ( #230, #219 ) ;
#28 = PRODUCT_DEFINITION_FORMATION_WITH_SPECIFIED_SOURCE ( 'ANY', '', #125, .NOT_KNOWN. ) ;
#29 = ADVANCED_FACE ( 'NONE', ( #206 ), #134, .F. ) ;
#30 = EDGE_CURVE ( 'NONE', #191, #199, #82, .T. ) ;
#31 = VERTEX_POINT ( 'NONE', #57 ) ;
#32 = APPROVAL_PERSON_ORGANIZATION ( #92, #120, #127 ) ;
#33 = EDGE_CURVE ( 'NONE', #242, #72, #5, .T. ) ;
#34 = CC_DESIGN_PERSON_AND_ORGANIZATION_ASSIGNMENT ( #27, #157, ( #38 ) ) ;
#35 = PERSON_AND_ORGANIZATION ( #230, #219 ) ;
#36 = ORIENTED_EDGE ( 'NONE', *, *, #84, .T. ) ;
#37 = AXIS2_PLACEMENT_3D ( 'NONE', #169, #20, #152 ) ;
#38 = PRODUCT_DEFINITION ( 'UNKNOWN', '', #28, #74 ) ;
#39 = CARTESIAN_POINT ( 'NONE',  ( 0.0000000000000000000, 0.0000000000000000000, 0.0000000000000000000 ) ) ;
#40 = CARTESIAN_POINT ( 'NONE',  ( 0.0000000000000000000, 0.0000000000000000000, 4.737099999999999866 ) ) ;
#41 = DIRECTION ( 'NONE',  ( -0.0000000000000000000, 1.000000000000000000, -0.0000000000000000000 ) ) ;
#42 = AXIS2_PLACEMENT_3D ( 'NONE', #167, #227, #148 ) ;
#43 = FACE_OUTER_BOUND ( 'NONE', #14, .T. ) ;
#44 = DIRECTION ( 'NONE',  ( 0.0000000000000000000, 0.0000000000000000000, -1.000000000000000000 ) ) ;
#45 = ADVANCED_FACE ( 'NONE', ( #117 ), #151, .T. ) ;
#46 = LOCAL_TIME ( 10, 23, 12.00000000000000000, #182 ) ;
#47 = LOCAL_TIME ( 10, 23, 12.00000000000000000, #183 ) ;
#48 = DATE_AND_TIME ( #67, #58 ) ;
#49 = LINE ( 'NONE', #8, #203 ) ;
#50 = APPROVAL_PERSON_ORGANIZATION ( #35, #15, #165 ) ;
#51 = CC_DESIGN_PERSON_AND_ORGANIZATION_ASSIGNMENT ( #155, #213, ( #125 ) ) ;
#52 = ORIENTED_EDGE ( 'NONE', *, *, #129, .T. ) ;
#53 = PRODUCT_DEFINITION_SHAPE ( 'NONE', 'NONE',  #38 ) ;
#54 = EDGE_LOOP ( 'NONE', ( #61, #116, #130, #95 ) ) ;
#55 = ORIENTED_EDGE ( 'NONE', *, *, #131, .F. ) ;
#56 = EDGE_CURVE ( 'NONE', #142, #31, #106, .T. ) ;
#57 = CARTESIAN_POINT ( 'NONE',  ( 0.0000000000000000000, 0.0000000000000000000, -9.525000000000000355 ) ) ;
#58 = LOCAL_TIME ( 10, 23, 12.00000000000000000, #235 ) ;
#59 = CARTESIAN_POINT ( 'NONE',  ( 1.166476076187854022E-15, 0.0000000000000000000, 9.525000000000000355 ) ) ;
#60 = ORIENTED_EDGE ( 'NONE', *, *, #33, .T. ) ;
#61 = ORIENTED_EDGE ( 'NONE', *, *, #216, .F. ) ;
#62 = CC_DESIGN_DATE_AND_TIME_ASSIGNMENT ( #91, #163, ( #240 ) ) ;
#63 = CIRCLE ( 'NONE', #226, 4.737099999999999866 ) ;
#64 = CARTESIAN_POINT ( 'NONE',  ( 0.0000000000000000000, 0.0000000000000000000, 0.0000000000000000000 ) ) ;
#65 = DIRECTION ( 'NONE',  ( 0.0000000000000000000, 1.000000000000000000, 0.0000000000000000000 ) ) ;
#66 = DIRECTION ( 'NONE',  ( 1.000000000000000000, 0.0000000000000000000, 0.0000000000000000000 ) ) ;
#67 = CALENDAR_DATE ( 2020, 4, 6 ) ;
#68 = DATE_AND_TIME ( #178, #46 ) ;
#69 = EDGE_CURVE ( 'NONE', #70, #142, #21, .T. ) ;
#70 = VERTEX_POINT ( 'NONE', #76 ) ;
#71 = APPROVAL_STATUS ( 'not_yet_approved' ) ;
#72 = VERTEX_POINT ( 'NONE', #40 ) ;
#73 = EDGE_CURVE ( 'NONE', #72, #242, #63, .T. ) ;
#74 = DESIGN_CONTEXT ( 'detailed design', #109, 'design' ) ;
#75 = CARTESIAN_POINT ( 'NONE',  ( 0.0000000000000000000, 3.225800000000000001, 0.0000000000000000000 ) ) ;
#76 = CARTESIAN_POINT ( 'NONE',  ( 1.166476076187854022E-15, 3.225800000000000001, 9.525000000000000355 ) ) ;
#77 = CARTESIAN_POINT ( 'NONE',  ( 0.0000000000000000000, 3.225800000000000001, 0.0000000000000000000 ) ) ;
#78 = ADVANCED_FACE ( 'NONE', ( #175, #43 ), #204, .F. ) ;
#79 = CARTESIAN_POINT ( 'NONE',  ( 0.0000000000000000000, 3.225800000000000001, 0.0000000000000000000 ) ) ;
#80 = CARTESIAN_POINT ( 'NONE',  ( 0.0000000000000000000, 3.225800000000000001, 4.737099999999999866 ) ) ;
#81 = CARTESIAN_POINT ( 'NONE',  ( 5.801274352240927923E-16, 0.0000000000000000000, -4.737099999999999866 ) ) ;
#82 = CIRCLE ( 'NONE', #202, 4.737099999999999866 ) ;
#83 = AXIS2_PLACEMENT_3D ( 'NONE', #195, #153, #139 ) ;
#84 = EDGE_CURVE ( 'NONE', #166, #70, #13, .T. ) ;
#85 = APPROVAL_ROLE ( '' ) ;
#86 =( LENGTH_UNIT ( ) NAMED_UNIT ( * ) SI_UNIT ( .MILLI., .METRE. ) );
#87 = PERSON_AND_ORGANIZATION ( #230, #219 ) ;
#88 = DATE_AND_TIME ( #158, #114 ) ;
#89 = CC_DESIGN_SECURITY_CLASSIFICATION ( #240, ( #28 ) ) ;
#90 = ADVANCED_BREP_SHAPE_REPRESENTATION ( '4188M004', ( #19, #136 ), #215 ) ;
#91 = DATE_AND_TIME ( #108, #24 ) ;
#92 = PERSON_AND_ORGANIZATION ( #230, #219 ) ;
#93 = ORIENTED_EDGE ( 'NONE', *, *, #237, .F. ) ;
#94 = DIRECTION ( 'NONE',  ( 0.0000000000000000000, 1.000000000000000000, 0.0000000000000000000 ) ) ;
#95 = ORIENTED_EDGE ( 'NONE', *, *, #173, .T. ) ;
#96 = FACE_BOUND ( 'NONE', #22, .T. ) ;
#97 = AXIS2_PLACEMENT_3D ( 'NONE', #190, #244, #225 ) ;
#98 = VECTOR ( 'NONE', #4, 1000.000000000000000 ) ;
#99 = CC_DESIGN_PERSON_AND_ORGANIZATION_ASSIGNMENT ( #185, #9, ( #28 ) ) ;
#100 = CARTESIAN_POINT ( 'NONE',  ( 0.0000000000000000000, 3.225800000000000001, -9.525000000000000355 ) ) ;
#101 = DIRECTION ( 'NONE',  ( 0.0000000000000000000, 1.000000000000000000, 0.0000000000000000000 ) ) ;
#102 = FACE_OUTER_BOUND ( 'NONE', #201, .T. ) ;
#103 = CC_DESIGN_APPROVAL ( #120, ( #28 ) ) ;
#104 = APPLICATION_PROTOCOL_DEFINITION ( 'international standard', 'config_control_design', 1994, #109 ) ;
#105 = CALENDAR_DATE ( 2020, 4, 6 ) ;
#106 = CIRCLE ( 'NONE', #97, 9.525000000000000355 ) ;
#107 = AXIS2_PLACEMENT_3D ( 'NONE', #77, #150, #224 ) ;
#108 = CALENDAR_DATE ( 2020, 4, 6 ) ;
#109 = APPLICATION_CONTEXT ( 'configuration controlled 3d designs of mechanical parts and assemblies' ) ;
#110 = APPROVAL_DATE_TIME ( #217, #120 ) ;
#111 = ORIENTED_EDGE ( 'NONE', *, *, #173, .F. ) ;
#112 = PERSON_AND_ORGANIZATION ( #230, #219 ) ;
#113 = EDGE_LOOP ( 'NONE', ( #16, #188, #147, #239 ) ) ;
#114 = LOCAL_TIME ( 10, 23, 12.00000000000000000, #144 ) ;
#115 = CARTESIAN_POINT ( 'NONE',  ( 0.0000000000000000000, 0.0000000000000000000, 0.0000000000000000000 ) ) ;
#116 = ORIENTED_EDGE ( 'NONE', *, *, #73, .F. ) ;
#117 = FACE_OUTER_BOUND ( 'NONE', #128, .T. ) ;
#118 = DIRECTION ( 'NONE',  ( -0.0000000000000000000, -1.000000000000000000, -0.0000000000000000000 ) ) ;
#119 = DIRECTION ( 'NONE',  ( 0.0000000000000000000, 0.0000000000000000000, 1.000000000000000000 ) ) ;
#120 = APPROVAL ( #71, 'UNSPECIFIED' ) ;
#121 = AXIS2_PLACEMENT_3D ( 'NONE', #64, #41, #133 ) ;
#122 = DIRECTION ( 'NONE',  ( 0.0000000000000000000, 0.0000000000000000000, 1.000000000000000000 ) ) ;
#123 = PERSON_AND_ORGANIZATION ( #230, #219 ) ;
#124 = AXIS2_PLACEMENT_3D ( 'NONE', #223, #94, #249 ) ;
#125 = PRODUCT ( '4188M004', '4188M004', '', ( #6 ) ) ;
#126 = EDGE_LOOP ( 'NONE', ( #209, #60 ) ) ;
#127 = APPROVAL_ROLE ( '' ) ;
#128 = EDGE_LOOP ( 'NONE', ( #132, #205, #186, #187 ) ) ;
#129 = EDGE_CURVE ( 'NONE', #70, #166, #177, .T. ) ;
#130 = ORIENTED_EDGE ( 'NONE', *, *, #231, .T. ) ;
#131 = EDGE_CURVE ( 'NONE', #31, #142, #207, .T. ) ;
#132 = ORIENTED_EDGE ( 'NONE', *, *, #69, .F. ) ;
#133 = DIRECTION ( 'NONE',  ( 0.0000000000000000000, 0.0000000000000000000, 1.000000000000000000 ) ) ;
#134 = CYLINDRICAL_SURFACE ( 'NONE', #121, 4.737099999999999866 ) ;
#135 = ORIENTED_EDGE ( 'NONE', *, *, #69, .T. ) ;
#136 = AXIS2_PLACEMENT_3D ( 'NONE', #196, #122, #66 ) ;
#137 = DIRECTION ( 'NONE',  ( 0.0000000000000000000, 1.000000000000000000, 0.0000000000000000000 ) ) ;
#138 = FACE_OUTER_BOUND ( 'NONE', #113, .T. ) ;
#139 = DIRECTION ( 'NONE',  ( 0.0000000000000000000, 0.0000000000000000000, -1.000000000000000000 ) ) ;
#140 = CLOSED_SHELL ( 'NONE', ( #200, #228, #45, #164, #78, #29 ) ) ;
#141 = CARTESIAN_POINT ( 'NONE',  ( 0.0000000000000000000, 3.225800000000000001, -9.525000000000000355 ) ) ;
#142 = VERTEX_POINT ( 'NONE', #59 ) ;
#143 = VECTOR ( 'NONE', #189, 1000.000000000000000 ) ;
#144 = COORDINATED_UNIVERSAL_TIME_OFFSET ( 5, 0, .BEHIND. ) ;
#145 = CC_DESIGN_DATE_AND_TIME_ASSIGNMENT ( #68, #3, ( #38 ) ) ;
#146 = EDGE_LOOP ( 'NONE', ( #36, #52 ) ) ;
#147 = ORIENTED_EDGE ( 'NONE', *, *, #30, .T. ) ;
#148 = DIRECTION ( 'NONE',  ( 0.0000000000000000000, 0.0000000000000000000, 1.000000000000000000 ) ) ;
#149 = DIRECTION ( 'NONE',  ( 0.0000000000000000000, 1.000000000000000000, 0.0000000000000000000 ) ) ;
#150 = DIRECTION ( 'NONE',  ( 0.0000000000000000000, 1.000000000000000000, 0.0000000000000000000 ) ) ;
#151 = CYLINDRICAL_SURFACE ( 'NONE', #245, 9.525000000000000355 ) ;
#152 = DIRECTION ( 'NONE',  ( 0.0000000000000000000, 0.0000000000000000000, 1.000000000000000000 ) ) ;
#153 = DIRECTION ( 'NONE',  ( -0.0000000000000000000, -1.000000000000000000, -0.0000000000000000000 ) ) ;
#154 = CARTESIAN_POINT ( 'NONE',  ( 5.801274352240927923E-16, 3.225800000000000001, -4.737099999999999866 ) ) ;
#155 = PERSON_AND_ORGANIZATION ( #230, #219 ) ;
#156 = CC_DESIGN_APPROVAL ( #234, ( #38 ) ) ;
#157 = PERSON_AND_ORGANIZATION_ROLE ( 'creator' ) ;
#158 = CALENDAR_DATE ( 2020, 4, 6 ) ;
#159 = ORIENTED_EDGE ( 'NONE', *, *, #129, .F. ) ;
#160 = CC_DESIGN_APPROVAL ( #15, ( #240 ) ) ;
#161 = UNCERTAINTY_MEASURE_WITH_UNIT (LENGTH_MEASURE( 1.000000000000000082E-05 ), #86, 'distance_accuracy_value', 'NONE');
#162 = APPROVAL_DATE_TIME ( #88, #15 ) ;
#163 = DATE_TIME_ROLE ( 'classification_date' ) ;
#164 = ADVANCED_FACE ( 'NONE', ( #96, #171 ), #247, .T. ) ;
#165 = APPROVAL_ROLE ( '' ) ;
#166 = VERTEX_POINT ( 'NONE', #100 ) ;
#167 = CARTESIAN_POINT ( 'NONE',  ( 0.0000000000000000000, 3.225800000000000001, 0.0000000000000000000 ) ) ;
#168 = CC_DESIGN_PERSON_AND_ORGANIZATION_ASSIGNMENT ( #112, #241, ( #28 ) ) ;
#169 = CARTESIAN_POINT ( 'NONE',  ( 0.0000000000000000000, 3.225800000000000001, 0.0000000000000000000 ) ) ;
#170 = CIRCLE ( 'NONE', #7, 4.737099999999999866 ) ;
#171 = FACE_OUTER_BOUND ( 'NONE', #146, .T. ) ;
#172 = APPLICATION_CONTEXT ( 'configuration controlled 3d designs of mechanical parts and assemblies' ) ;
#173 = EDGE_CURVE ( 'NONE', #199, #191, #170, .T. ) ;
#174 = CARTESIAN_POINT ( 'NONE',  ( 0.0000000000000000000, 3.225800000000000001, 0.0000000000000000000 ) ) ;
#175 = FACE_BOUND ( 'NONE', #126, .T. ) ;
#176 = CYLINDRICAL_SURFACE ( 'NONE', #233, 4.737099999999999866 ) ;
#177 = CIRCLE ( 'NONE', #42, 9.525000000000000355 ) ;
#178 = CALENDAR_DATE ( 2020, 4, 6 ) ;
#179 = DIRECTION ( 'NONE',  ( -0.0000000000000000000, 1.000000000000000000, -0.0000000000000000000 ) ) ;
#180 = LINE ( 'NONE', #214, #181 ) ;
#181 = VECTOR ( 'NONE', #210, 1000.000000000000000 ) ;
#182 = COORDINATED_UNIVERSAL_TIME_OFFSET ( 5, 0, .BEHIND. ) ;
#183 = COORDINATED_UNIVERSAL_TIME_OFFSET ( 5, 0, .BEHIND. ) ;
#184 = APPROVAL_STATUS ( 'not_yet_approved' ) ;
#185 = PERSON_AND_ORGANIZATION ( #230, #219 ) ;
#186 = ORIENTED_EDGE ( 'NONE', *, *, #237, .T. ) ;
#187 = ORIENTED_EDGE ( 'NONE', *, *, #131, .T. ) ;
#188 = ORIENTED_EDGE ( 'NONE', *, *, #216, .T. ) ;
#189 = DIRECTION ( 'NONE',  ( -0.0000000000000000000, -1.000000000000000000, -0.0000000000000000000 ) ) ;
#190 = CARTESIAN_POINT ( 'NONE',  ( 0.0000000000000000000, 0.0000000000000000000, 0.0000000000000000000 ) ) ;
#191 = VERTEX_POINT ( 'NONE', #154 ) ;
#192 = DIRECTION ( 'NONE',  ( -0.0000000000000000000, 1.000000000000000000, -0.0000000000000000000 ) ) ;
#193 = APPLICATION_PROTOCOL_DEFINITION ( 'international standard', 'config_control_design', 1994, #172 ) ;
#194 = AXIS2_PLACEMENT_3D ( 'NONE', #39, #137, #222 ) ;
#195 = CARTESIAN_POINT ( 'NONE',  ( 0.0000000000000000000, 3.225800000000000001, 0.0000000000000000000 ) ) ;
#196 = CARTESIAN_POINT ( 'NONE',  ( 0.0000000000000000000, 0.0000000000000000000, 0.0000000000000000000 ) ) ;
#197 = AXIS2_PLACEMENT_3D ( 'NONE', #115, #208, #119 ) ;
#198 = COORDINATED_UNIVERSAL_TIME_OFFSET ( 5, 0, .BEHIND. ) ;
#199 = VERTEX_POINT ( 'NONE', #80 ) ;
#200 = ADVANCED_FACE ( 'NONE', ( #138 ), #176, .F. ) ;
#201 = EDGE_LOOP ( 'NONE', ( #159, #135, #218, #93 ) ) ;
#202 = AXIS2_PLACEMENT_3D ( 'NONE', #75, #149, #243 ) ;
#203 = VECTOR ( 'NONE', #192, 1000.000000000000000 ) ;
#204 = PLANE ( 'NONE',  #124 ) ;
#205 = ORIENTED_EDGE ( 'NONE', *, *, #84, .F. ) ;
#206 = FACE_OUTER_BOUND ( 'NONE', #54, .T. ) ;
#207 = CIRCLE ( 'NONE', #194, 9.525000000000000355 ) ;
#208 = DIRECTION ( 'NONE',  ( 0.0000000000000000000, 1.000000000000000000, 0.0000000000000000000 ) ) ;
#209 = ORIENTED_EDGE ( 'NONE', *, *, #73, .T. ) ;
#210 = DIRECTION ( 'NONE',  ( -0.0000000000000000000, 1.000000000000000000, -0.0000000000000000000 ) ) ;
#211 = LINE ( 'NONE', #141, #98 ) ;
#212 = DIRECTION ( 'NONE',  ( 0.0000000000000000000, 0.0000000000000000000, 1.000000000000000000 ) ) ;
#213 = PERSON_AND_ORGANIZATION_ROLE ( 'design_owner' ) ;
#214 = CARTESIAN_POINT ( 'NONE',  ( 0.0000000000000000000, 0.0000000000000000000, 4.737099999999999866 ) ) ;
#215 =( GEOMETRIC_REPRESENTATION_CONTEXT ( 3 ) GLOBAL_UNCERTAINTY_ASSIGNED_CONTEXT ( ( #161 ) ) GLOBAL_UNIT_ASSIGNED_CONTEXT ( ( #86, #26, #229 ) ) REPRESENTATION_CONTEXT ( 'NONE', 'WORKASPACE' ) );
#216 = EDGE_CURVE ( 'NONE', #242, #191, #49, .T. ) ;
#217 = DATE_AND_TIME ( #105, #47 ) ;
#218 = ORIENTED_EDGE ( 'NONE', *, *, #56, .T. ) ;
#219 = ORGANIZATION ( 'UNSPECIFIED', 'UNSPECIFIED', '' ) ;
#220 = SHAPE_DEFINITION_REPRESENTATION ( #53, #90 ) ;
#221 = ORIENTED_EDGE ( 'NONE', *, *, #30, .F. ) ;
#222 = DIRECTION ( 'NONE',  ( 0.0000000000000000000, 0.0000000000000000000, 1.000000000000000000 ) ) ;
#223 = CARTESIAN_POINT ( 'NONE',  ( 0.0000000000000000000, 0.0000000000000000000, 0.0000000000000000000 ) ) ;
#224 = DIRECTION ( 'NONE',  ( 0.0000000000000000000, -0.0000000000000000000, 1.000000000000000000 ) ) ;
#225 = DIRECTION ( 'NONE',  ( 0.0000000000000000000, 0.0000000000000000000, 1.000000000000000000 ) ) ;
#226 = AXIS2_PLACEMENT_3D ( 'NONE', #17, #101, #18 ) ;
#227 = DIRECTION ( 'NONE',  ( 0.0000000000000000000, 1.000000000000000000, 0.0000000000000000000 ) ) ;
#228 = ADVANCED_FACE ( 'NONE', ( #102 ), #2, .T. ) ;
#229 =( NAMED_UNIT ( * ) SI_UNIT ( $, .STERADIAN. ) SOLID_ANGLE_UNIT ( ) );
#230 = PERSON ( 'UNSPECIFIED', 'UNSPECIFIED', 'UNSPECIFIED', ('UNSPECIFIED'), ('UNSPECIFIED'), ('UNSPECIFIED') ) ;
#231 = EDGE_CURVE ( 'NONE', #72, #199, #180, .T. ) ;
#232 = DIRECTION ( 'NONE',  ( 0.0000000000000000000, 0.0000000000000000000, 1.000000000000000000 ) ) ;
#233 = AXIS2_PLACEMENT_3D ( 'NONE', #23, #179, #232 ) ;
#234 = APPROVAL ( #236, 'UNSPECIFIED' ) ;
#235 = COORDINATED_UNIVERSAL_TIME_OFFSET ( 5, 0, .BEHIND. ) ;
#236 = APPROVAL_STATUS ( 'not_yet_approved' ) ;
#237 = EDGE_CURVE ( 'NONE', #166, #31, #211, .T. ) ;
#238 = PERSON_AND_ORGANIZATION_ROLE ( 'classification_officer' ) ;
#239 = ORIENTED_EDGE ( 'NONE', *, *, #231, .F. ) ;
#240 = SECURITY_CLASSIFICATION ( '', '', #11 ) ;
#241 = PERSON_AND_ORGANIZATION_ROLE ( 'design_supplier' ) ;
#242 = VERTEX_POINT ( 'NONE', #81 ) ;
#243 = DIRECTION ( 'NONE',  ( 0.0000000000000000000, 0.0000000000000000000, 1.000000000000000000 ) ) ;
#244 = DIRECTION ( 'NONE',  ( 0.0000000000000000000, 1.000000000000000000, 0.0000000000000000000 ) ) ;
#245 = AXIS2_PLACEMENT_3D ( 'NONE', #79, #118, #44 ) ;
#246 = CC_DESIGN_PERSON_AND_ORGANIZATION_ASSIGNMENT ( #87, #238, ( #240 ) ) ;
#247 = PLANE ( 'NONE',  #107 ) ;
#248 = CARTESIAN_POINT ( 'NONE',  ( 1.166476076187854022E-15, 3.225800000000000001, 9.525000000000000355 ) ) ;
#249 = DIRECTION ( 'NONE',  ( 0.0000000000000000000, -0.0000000000000000000, 1.000000000000000000 ) ) ;
ENDSEC;
END-ISO-10303-21;
