ISO-10303-21;
HEADER;
FILE_DESCRIPTION (( 'STEP AP203' ),
    '1' );
FILE_NAME ('F15.STEP',
    '2021-07-15T18:19:56',
    ( '' ),
    ( '' ),
    'SwSTEP 2.0',
    'SolidWorks 2020',
    '' );
FILE_SCHEMA (( 'CONFIG_CONTROL_DESIGN' ));
ENDSEC;

DATA;
#1 = AXIS2_PLACEMENT_3D ( 'NONE', #144, #218, #4 ) ;
#2 = SECURITY_CLASSIFICATION_LEVEL ( 'unclassified' ) ;
#3 = DIRECTION ( 'NONE',  ( 0.000000000000000000, 0.000000000000000000, 1.000000000000000000 ) ) ;
#4 = DIRECTION ( 'NONE',  ( 0.000000000000000000, 0.000000000000000000, 1.000000000000000000 ) ) ;
#5 = DATE_AND_TIME ( #63, #208 ) ;
#6 = LINE ( 'NONE', #45, #176 ) ;
#7 = CARTESIAN_POINT ( 'NONE',  ( 0.000000000000000000, 0.000000000000000000, 0.000000000000000000 ) ) ;
#8 = CARTESIAN_POINT ( 'NONE',  ( 0.000000000000000000, 3.936999999999999389, 0.000000000000000000 ) ) ;
#9 = APPROVAL_DATE_TIME ( #207, #22 ) ;
#10 = CC_DESIGN_APPROVAL ( #32, ( #240 ) ) ;
#11 = ORIENTED_EDGE ( 'NONE', *, *, #12, .T. ) ;
#12 = EDGE_CURVE ( 'NONE', #93, #114, #226, .T. ) ;
#13 = VERTEX_POINT ( 'NONE', #238 ) ;
#14 = AXIS2_PLACEMENT_3D ( 'NONE', #200, #142, #215 ) ;
#15 = ORIENTED_EDGE ( 'NONE', *, *, #246, .F. ) ;
#16 = DIRECTION ( 'NONE',  ( -0.000000000000000000, 1.000000000000000000, -0.000000000000000000 ) ) ;
#17 = AXIS2_PLACEMENT_3D ( 'NONE', #118, #76, #160 ) ;
#18 = DIRECTION ( 'NONE',  ( -0.000000000000000000, -1.000000000000000000, -0.000000000000000000 ) ) ;
#19 = CC_DESIGN_PERSON_AND_ORGANIZATION_ASSIGNMENT ( #221, #163, ( #240 ) ) ;
#20 = CARTESIAN_POINT ( 'NONE',  ( 0.000000000000000000, 0.000000000000000000, 0.000000000000000000 ) ) ;
#21 = PERSON_AND_ORGANIZATION_ROLE ( 'classification_officer' ) ;
#22 = APPROVAL ( #173, 'UNSPECIFIED' ) ;
#23 = CARTESIAN_POINT ( 'NONE',  ( 7.776507174585692163E-16, 0.000000000000000000, -6.349999999999999645 ) ) ;
#24 = PERSON_AND_ORGANIZATION_ROLE ( 'design_supplier' ) ;
#25 = CYLINDRICAL_SURFACE ( 'NONE', #90, 12.53490000000000038 ) ;
#26 =( NAMED_UNIT ( * ) PLANE_ANGLE_UNIT ( ) SI_UNIT ( $, .RADIAN. ) );
#27 = DIRECTION ( 'NONE',  ( 0.000000000000000000, 1.000000000000000000, 0.000000000000000000 ) ) ;
#28 = APPROVAL ( #166, 'UNSPECIFIED' ) ;
#29 = CARTESIAN_POINT ( 'NONE',  ( 0.000000000000000000, 0.000000000000000000, 0.000000000000000000 ) ) ;
#30 = COORDINATED_UNIVERSAL_TIME_OFFSET ( 5, 0, .BEHIND. ) ;
#31 = VECTOR ( 'NONE', #220, 1000.000000000000000 ) ;
#32 = APPROVAL ( #85, 'UNSPECIFIED' ) ;
#33 = ORIENTED_EDGE ( 'NONE', *, *, #203, .F. ) ;
#34 = ORIENTED_EDGE ( 'NONE', *, *, #94, .F. ) ;
#35 = LOCAL_TIME ( 14, 19, 56.00000000000000000, #30 ) ;
#36 = PLANE ( 'NONE',  #182 ) ;
#37 = DIRECTION ( 'NONE',  ( -0.000000000000000000, 1.000000000000000000, -0.000000000000000000 ) ) ;
#38 = AXIS2_PLACEMENT_3D ( 'NONE', #100, #102, #43 ) ;
#39 = CC_DESIGN_PERSON_AND_ORGANIZATION_ASSIGNMENT ( #145, #24, ( #240 ) ) ;
#40 = ADVANCED_BREP_SHAPE_REPRESENTATION ( 'F15', ( #135, #104 ), #148 ) ;
#41 = CARTESIAN_POINT ( 'NONE',  ( 0.000000000000000000, 0.000000000000000000, 0.000000000000000000 ) ) ;
#42 = ADVANCED_FACE ( 'NONE', ( #64 ), #25, .T. ) ;
#43 = DIRECTION ( 'NONE',  ( 0.000000000000000000, 0.000000000000000000, 1.000000000000000000 ) ) ;
#44 = FACE_OUTER_BOUND ( 'NONE', #175, .T. ) ;
#45 = CARTESIAN_POINT ( 'NONE',  ( 7.776507174585692163E-16, 0.000000000000000000, -6.349999999999999645 ) ) ;
#46 = PERSON_AND_ORGANIZATION ( #181, #212 ) ;
#47 = DIRECTION ( 'NONE',  ( -0.000000000000000000, 1.000000000000000000, -0.000000000000000000 ) ) ;
#48 = APPROVAL_ROLE ( '' ) ;
#49 = ORIENTED_EDGE ( 'NONE', *, *, #112, .T. ) ;
#50 = DATE_TIME_ROLE ( 'creation_date' ) ;
#51 = EDGE_LOOP ( 'NONE', ( #83, #211, #149, #88 ) ) ;
#52 = EDGE_LOOP ( 'NONE', ( #228, #156, #49, #34 ) ) ;
#53 = EDGE_LOOP ( 'NONE', ( #244, #33 ) ) ;
#54 = DIRECTION ( 'NONE',  ( 0.000000000000000000, -0.000000000000000000, 1.000000000000000000 ) ) ;
#55 = LINE ( 'NONE', #96, #216 ) ;
#56 = AXIS2_PLACEMENT_3D ( 'NONE', #167, #183, #3 ) ;
#57 = CYLINDRICAL_SURFACE ( 'NONE', #162, 6.349999999999999645 ) ;
#58 = DATE_AND_TIME ( #125, #101 ) ;
#59 = DIRECTION ( 'NONE',  ( -0.000000000000000000, 1.000000000000000000, -0.000000000000000000 ) ) ;
#60 = AXIS2_PLACEMENT_3D ( 'NONE', #137, #18, #249 ) ;
#61 = PLANE ( 'NONE',  #178 ) ;
#62 = PRODUCT ( 'F15', 'F15', '', ( #223 ) ) ;
#63 = CALENDAR_DATE ( 2021, 15, 7 ) ;
#64 = FACE_OUTER_BOUND ( 'NONE', #210, .T. ) ;
#65 = EDGE_CURVE ( 'NONE', #67, #93, #107, .T. ) ;
#66 =( NAMED_UNIT ( * ) SI_UNIT ( $, .STERADIAN. ) SOLID_ANGLE_UNIT ( ) );
#67 = VERTEX_POINT ( 'NONE', #169 ) ;
#68 = PERSON_AND_ORGANIZATION ( #181, #212 ) ;
#69 = CC_DESIGN_DATE_AND_TIME_ASSIGNMENT ( #225, #50, ( #115 ) ) ;
#70 = ORIENTED_EDGE ( 'NONE', *, *, #65, .T. ) ;
#71 = DIRECTION ( 'NONE',  ( 1.000000000000000000, 0.000000000000000000, 0.000000000000000000 ) ) ;
#72 = ORIENTED_EDGE ( 'NONE', *, *, #246, .T. ) ;
#73 = ORIENTED_EDGE ( 'NONE', *, *, #94, .T. ) ;
#74 = AXIS2_PLACEMENT_3D ( 'NONE', #126, #37, #231 ) ;
#75 = ADVANCED_FACE ( 'NONE', ( #237, #186 ), #61, .T. ) ;
#76 = DIRECTION ( 'NONE',  ( 0.000000000000000000, 1.000000000000000000, 0.000000000000000000 ) ) ;
#77 = DIRECTION ( 'NONE',  ( 0.000000000000000000, 1.000000000000000000, 0.000000000000000000 ) ) ;
#78 = CIRCLE ( 'NONE', #56, 12.53490000000000038 ) ;
#79 =( LENGTH_UNIT ( ) NAMED_UNIT ( * ) SI_UNIT ( .MILLI., .METRE. ) );
#80 = EDGE_CURVE ( 'NONE', #177, #241, #6, .T. ) ;
#81 = DATE_TIME_ROLE ( 'classification_date' ) ;
#82 = DIRECTION ( 'NONE',  ( 0.000000000000000000, 1.000000000000000000, 0.000000000000000000 ) ) ;
#83 = ORIENTED_EDGE ( 'NONE', *, *, #108, .F. ) ;
#84 = DIRECTION ( 'NONE',  ( 0.000000000000000000, 0.000000000000000000, 1.000000000000000000 ) ) ;
#85 = APPROVAL_STATUS ( 'not_yet_approved' ) ;
#86 = APPROVAL_DATE_TIME ( #58, #28 ) ;
#87 = ADVANCED_FACE ( 'NONE', ( #202 ), #128, .F. ) ;
#88 = ORIENTED_EDGE ( 'NONE', *, *, #65, .F. ) ;
#89 = PERSON_AND_ORGANIZATION ( #181, #212 ) ;
#90 = AXIS2_PLACEMENT_3D ( 'NONE', #205, #147, #103 ) ;
#91 = ORIENTED_EDGE ( 'NONE', *, *, #184, .F. ) ;
#92 = EDGE_LOOP ( 'NONE', ( #113, #245 ) ) ;
#93 = VERTEX_POINT ( 'NONE', #195 ) ;
#94 = EDGE_CURVE ( 'NONE', #13, #190, #55, .T. ) ;
#95 = CIRCLE ( 'NONE', #17, 12.53490000000000038 ) ;
#96 = CARTESIAN_POINT ( 'NONE',  ( 0.000000000000000000, 0.000000000000000000, 6.349999999999999645 ) ) ;
#97 = CARTESIAN_POINT ( 'NONE',  ( 0.000000000000000000, 3.936999999999999389, 0.000000000000000000 ) ) ;
#98 = ADVANCED_FACE ( 'NONE', ( #138, #179 ), #36, .F. ) ;
#99 = APPROVAL_PERSON_ORGANIZATION ( #109, #22, #150 ) ;
#100 = CARTESIAN_POINT ( 'NONE',  ( 0.000000000000000000, 3.936999999999999389, 0.000000000000000000 ) ) ;
#101 = LOCAL_TIME ( 14, 19, 56.00000000000000000, #234 ) ;
#102 = DIRECTION ( 'NONE',  ( 0.000000000000000000, 1.000000000000000000, 0.000000000000000000 ) ) ;
#103 = DIRECTION ( 'NONE',  ( 0.000000000000000000, 0.000000000000000000, -1.000000000000000000 ) ) ;
#104 = AXIS2_PLACEMENT_3D ( 'NONE', #29, #209, #71 ) ;
#105 = PERSON_AND_ORGANIZATION ( #181, #212 ) ;
#106 = DESIGN_CONTEXT ( 'detailed design', #122, 'design' ) ;
#107 = LINE ( 'NONE', #222, #31 ) ;
#108 = EDGE_CURVE ( 'NONE', #193, #67, #95, .T. ) ;
#109 = PERSON_AND_ORGANIZATION ( #181, #212 ) ;
#110 = VECTOR ( 'NONE', #213, 1000.000000000000000 ) ;
#111 = APPLICATION_CONTEXT ( 'configuration controlled 3d designs of mechanical parts and assemblies' ) ;
#112 = EDGE_CURVE ( 'NONE', #241, #190, #117, .T. ) ;
#113 = ORIENTED_EDGE ( 'NONE', *, *, #174, .T. ) ;
#114 = VERTEX_POINT ( 'NONE', #116 ) ;
#115 = PRODUCT_DEFINITION ( 'UNKNOWN', '', #240, #106 ) ;
#116 = CARTESIAN_POINT ( 'NONE',  ( 1.535082516263215815E-15, 0.000000000000000000, 12.53490000000000038 ) ) ;
#117 = CIRCLE ( 'NONE', #197, 6.349999999999999645 ) ;
#118 = CARTESIAN_POINT ( 'NONE',  ( 0.000000000000000000, 3.936999999999999389, 0.000000000000000000 ) ) ;
#119 = DIRECTION ( 'NONE',  ( 0.000000000000000000, 0.000000000000000000, 1.000000000000000000 ) ) ;
#120 = CIRCLE ( 'NONE', #38, 6.349999999999999645 ) ;
#121 = CARTESIAN_POINT ( 'NONE',  ( 7.776507174585692163E-16, 3.936999999999999389, -6.349999999999999645 ) ) ;
#122 = APPLICATION_CONTEXT ( 'configuration controlled 3d designs of mechanical parts and assemblies' ) ;
#123 = PRODUCT_DEFINITION_SHAPE ( 'NONE', 'NONE',  #115 ) ;
#124 = ADVANCED_FACE ( 'NONE', ( #198 ), #232, .T. ) ;
#125 = CALENDAR_DATE ( 2021, 15, 7 ) ;
#126 = CARTESIAN_POINT ( 'NONE',  ( 0.000000000000000000, 0.000000000000000000, 0.000000000000000000 ) ) ;
#127 = APPROVAL_DATE_TIME ( #5, #32 ) ;
#128 = CYLINDRICAL_SURFACE ( 'NONE', #74, 6.349999999999999645 ) ;
#129 = AXIS2_PLACEMENT_3D ( 'NONE', #7, #170, #84 ) ;
#130 = COORDINATED_UNIVERSAL_TIME_OFFSET ( 5, 0, .BEHIND. ) ;
#131 = EDGE_LOOP ( 'NONE', ( #72, #136 ) ) ;
#132 = PERSON_AND_ORGANIZATION_ROLE ( 'creator' ) ;
#133 = LOCAL_TIME ( 14, 19, 56.00000000000000000, #219 ) ;
#134 = ORIENTED_EDGE ( 'NONE', *, *, #184, .T. ) ;
#135 = MANIFOLD_SOLID_BREP ( 'Cut-Extrude1', #199 ) ;
#136 = ORIENTED_EDGE ( 'NONE', *, *, #151, .T. ) ;
#137 = CARTESIAN_POINT ( 'NONE',  ( 0.000000000000000000, 3.936999999999999389, 0.000000000000000000 ) ) ;
#138 = FACE_BOUND ( 'NONE', #131, .T. ) ;
#139 = AXIS2_PLACEMENT_3D ( 'NONE', #20, #82, #164 ) ;
#140 = EDGE_CURVE ( 'NONE', #193, #114, #161, .T. ) ;
#141 = DATE_AND_TIME ( #201, #133 ) ;
#142 = DIRECTION ( 'NONE',  ( 0.000000000000000000, 1.000000000000000000, 0.000000000000000000 ) ) ;
#143 = SHAPE_DEFINITION_REPRESENTATION ( #123, #40 ) ;
#144 = CARTESIAN_POINT ( 'NONE',  ( 0.000000000000000000, 0.000000000000000000, 0.000000000000000000 ) ) ;
#145 = PERSON_AND_ORGANIZATION ( #181, #212 ) ;
#146 = DIRECTION ( 'NONE',  ( 0.000000000000000000, -0.000000000000000000, 1.000000000000000000 ) ) ;
#147 = DIRECTION ( 'NONE',  ( -0.000000000000000000, -1.000000000000000000, -0.000000000000000000 ) ) ;
#148 =( GEOMETRIC_REPRESENTATION_CONTEXT ( 3 ) GLOBAL_UNCERTAINTY_ASSIGNED_CONTEXT ( ( #194 ) ) GLOBAL_UNIT_ASSIGNED_CONTEXT ( ( #79, #26, #66 ) ) REPRESENTATION_CONTEXT ( 'NONE', 'WORKASPACE' ) );
#149 = ORIENTED_EDGE ( 'NONE', *, *, #203, .T. ) ;
#150 = APPROVAL_ROLE ( '' ) ;
#151 = EDGE_CURVE ( 'NONE', #177, #13, #152, .T. ) ;
#152 = CIRCLE ( 'NONE', #139, 6.349999999999999645 ) ;
#153 = CC_DESIGN_APPROVAL ( #28, ( #236 ) ) ;
#154 = CC_DESIGN_SECURITY_CLASSIFICATION ( #236, ( #240 ) ) ;
#155 = ORIENTED_EDGE ( 'NONE', *, *, #140, .F. ) ;
#156 = ORIENTED_EDGE ( 'NONE', *, *, #80, .T. ) ;
#157 = ADVANCED_FACE ( 'NONE', ( #44 ), #57, .F. ) ;
#158 = LOCAL_TIME ( 14, 19, 56.00000000000000000, #130 ) ;
#159 = CARTESIAN_POINT ( 'NONE',  ( 1.535082516263215815E-15, 3.936999999999999389, 12.53490000000000038 ) ) ;
#160 = DIRECTION ( 'NONE',  ( 0.000000000000000000, 0.000000000000000000, 1.000000000000000000 ) ) ;
#161 = LINE ( 'NONE', #159, #110 ) ;
#162 = AXIS2_PLACEMENT_3D ( 'NONE', #41, #59, #119 ) ;
#163 = PERSON_AND_ORGANIZATION_ROLE ( 'creator' ) ;
#164 = DIRECTION ( 'NONE',  ( 0.000000000000000000, 0.000000000000000000, 1.000000000000000000 ) ) ;
#165 = CC_DESIGN_PERSON_AND_ORGANIZATION_ASSIGNMENT ( #68, #206, ( #62 ) ) ;
#166 = APPROVAL_STATUS ( 'not_yet_approved' ) ;
#167 = CARTESIAN_POINT ( 'NONE',  ( 0.000000000000000000, 0.000000000000000000, 0.000000000000000000 ) ) ;
#168 = APPROVAL_PERSON_ORGANIZATION ( #105, #28, #217 ) ;
#169 = CARTESIAN_POINT ( 'NONE',  ( 0.000000000000000000, 3.936999999999999389, -12.53490000000000038 ) ) ;
#170 = DIRECTION ( 'NONE',  ( 0.000000000000000000, 1.000000000000000000, 0.000000000000000000 ) ) ;
#171 = PRODUCT_RELATED_PRODUCT_CATEGORY ( 'detail', '', ( #62 ) ) ;
#172 = ORIENTED_EDGE ( 'NONE', *, *, #112, .F. ) ;
#173 = APPROVAL_STATUS ( 'not_yet_approved' ) ;
#174 = EDGE_CURVE ( 'NONE', #67, #193, #229, .T. ) ;
#175 = EDGE_LOOP ( 'NONE', ( #191, #15, #73, #134 ) ) ;
#176 = VECTOR ( 'NONE', #47, 1000.000000000000000 ) ;
#177 = VERTEX_POINT ( 'NONE', #23 ) ;
#178 = AXIS2_PLACEMENT_3D ( 'NONE', #8, #27, #146 ) ;
#179 = FACE_OUTER_BOUND ( 'NONE', #53, .T. ) ;
#180 = DIRECTION ( 'NONE',  ( 0.000000000000000000, 0.000000000000000000, 1.000000000000000000 ) ) ;
#181 = PERSON ( 'UNSPECIFIED', 'UNSPECIFIED', 'UNSPECIFIED', ('UNSPECIFIED'), ('UNSPECIFIED'), ('UNSPECIFIED') ) ;
#182 = AXIS2_PLACEMENT_3D ( 'NONE', #248, #214, #54 ) ;
#183 = DIRECTION ( 'NONE',  ( 0.000000000000000000, 1.000000000000000000, 0.000000000000000000 ) ) ;
#184 = EDGE_CURVE ( 'NONE', #190, #241, #120, .T. ) ;
#185 = PERSON_AND_ORGANIZATION ( #181, #212 ) ;
#186 = FACE_OUTER_BOUND ( 'NONE', #92, .T. ) ;
#187 = APPLICATION_PROTOCOL_DEFINITION ( 'international standard', 'config_control_design', 1994, #122 ) ;
#188 = CC_DESIGN_PERSON_AND_ORGANIZATION_ASSIGNMENT ( #46, #21, ( #236 ) ) ;
#189 = CALENDAR_DATE ( 2021, 15, 7 ) ;
#190 = VERTEX_POINT ( 'NONE', #235 ) ;
#191 = ORIENTED_EDGE ( 'NONE', *, *, #80, .F. ) ;
#192 = CIRCLE ( 'NONE', #1, 6.349999999999999645 ) ;
#193 = VERTEX_POINT ( 'NONE', #233 ) ;
#194 = UNCERTAINTY_MEASURE_WITH_UNIT (LENGTH_MEASURE( 1.000000000000000082E-05 ), #79, 'distance_accuracy_value', 'NONE');
#195 = CARTESIAN_POINT ( 'NONE',  ( 0.000000000000000000, 0.000000000000000000, -12.53490000000000038 ) ) ;
#196 = CC_DESIGN_DATE_AND_TIME_ASSIGNMENT ( #141, #81, ( #236 ) ) ;
#197 = AXIS2_PLACEMENT_3D ( 'NONE', #97, #77, #180 ) ;
#198 = FACE_OUTER_BOUND ( 'NONE', #51, .T. ) ;
#199 = CLOSED_SHELL ( 'NONE', ( #87, #124, #42, #75, #98, #157 ) ) ;
#200 = CARTESIAN_POINT ( 'NONE',  ( 0.000000000000000000, 3.936999999999999389, 0.000000000000000000 ) ) ;
#201 = CALENDAR_DATE ( 2021, 15, 7 ) ;
#202 = FACE_OUTER_BOUND ( 'NONE', #52, .T. ) ;
#203 = EDGE_CURVE ( 'NONE', #114, #93, #78, .T. ) ;
#204 = CC_DESIGN_APPROVAL ( #22, ( #115 ) ) ;
#205 = CARTESIAN_POINT ( 'NONE',  ( 0.000000000000000000, 3.936999999999999389, 0.000000000000000000 ) ) ;
#206 = PERSON_AND_ORGANIZATION_ROLE ( 'design_owner' ) ;
#207 = DATE_AND_TIME ( #242, #158 ) ;
#208 = LOCAL_TIME ( 14, 19, 56.00000000000000000, #239 ) ;
#209 = DIRECTION ( 'NONE',  ( 0.000000000000000000, 0.000000000000000000, 1.000000000000000000 ) ) ;
#210 = EDGE_LOOP ( 'NONE', ( #155, #227, #70, #11 ) ) ;
#211 = ORIENTED_EDGE ( 'NONE', *, *, #140, .T. ) ;
#212 = ORGANIZATION ( 'UNSPECIFIED', 'UNSPECIFIED', '' ) ;
#213 = DIRECTION ( 'NONE',  ( -0.000000000000000000, -1.000000000000000000, -0.000000000000000000 ) ) ;
#214 = DIRECTION ( 'NONE',  ( 0.000000000000000000, 1.000000000000000000, 0.000000000000000000 ) ) ;
#215 = DIRECTION ( 'NONE',  ( 0.000000000000000000, 0.000000000000000000, 1.000000000000000000 ) ) ;
#216 = VECTOR ( 'NONE', #16, 1000.000000000000000 ) ;
#217 = APPROVAL_ROLE ( '' ) ;
#218 = DIRECTION ( 'NONE',  ( 0.000000000000000000, 1.000000000000000000, 0.000000000000000000 ) ) ;
#219 = COORDINATED_UNIVERSAL_TIME_OFFSET ( 5, 0, .BEHIND. ) ;
#220 = DIRECTION ( 'NONE',  ( -0.000000000000000000, -1.000000000000000000, -0.000000000000000000 ) ) ;
#221 = PERSON_AND_ORGANIZATION ( #181, #212 ) ;
#222 = CARTESIAN_POINT ( 'NONE',  ( 0.000000000000000000, 3.936999999999999389, -12.53490000000000038 ) ) ;
#223 = MECHANICAL_CONTEXT ( 'NONE', #111, 'mechanical' ) ;
#224 = EDGE_LOOP ( 'NONE', ( #91, #172 ) ) ;
#225 = DATE_AND_TIME ( #189, #35 ) ;
#226 = CIRCLE ( 'NONE', #129, 12.53490000000000038 ) ;
#227 = ORIENTED_EDGE ( 'NONE', *, *, #174, .F. ) ;
#228 = ORIENTED_EDGE ( 'NONE', *, *, #151, .F. ) ;
#229 = CIRCLE ( 'NONE', #14, 12.53490000000000038 ) ;
#230 = CC_DESIGN_PERSON_AND_ORGANIZATION_ASSIGNMENT ( #89, #132, ( #115 ) ) ;
#231 = DIRECTION ( 'NONE',  ( 0.000000000000000000, 0.000000000000000000, 1.000000000000000000 ) ) ;
#232 = CYLINDRICAL_SURFACE ( 'NONE', #60, 12.53490000000000038 ) ;
#233 = CARTESIAN_POINT ( 'NONE',  ( 1.535082516263215815E-15, 3.936999999999999389, 12.53490000000000038 ) ) ;
#234 = COORDINATED_UNIVERSAL_TIME_OFFSET ( 5, 0, .BEHIND. ) ;
#235 = CARTESIAN_POINT ( 'NONE',  ( 0.000000000000000000, 3.936999999999999389, 6.349999999999999645 ) ) ;
#236 = SECURITY_CLASSIFICATION ( '', '', #2 ) ;
#237 = FACE_BOUND ( 'NONE', #224, .T. ) ;
#238 = CARTESIAN_POINT ( 'NONE',  ( 0.000000000000000000, 0.000000000000000000, 6.349999999999999645 ) ) ;
#239 = COORDINATED_UNIVERSAL_TIME_OFFSET ( 5, 0, .BEHIND. ) ;
#240 = PRODUCT_DEFINITION_FORMATION_WITH_SPECIFIED_SOURCE ( 'ANY', '', #62, .NOT_KNOWN. ) ;
#241 = VERTEX_POINT ( 'NONE', #121 ) ;
#242 = CALENDAR_DATE ( 2021, 15, 7 ) ;
#243 = APPLICATION_PROTOCOL_DEFINITION ( 'international standard', 'config_control_design', 1994, #111 ) ;
#244 = ORIENTED_EDGE ( 'NONE', *, *, #12, .F. ) ;
#245 = ORIENTED_EDGE ( 'NONE', *, *, #108, .T. ) ;
#246 = EDGE_CURVE ( 'NONE', #13, #177, #192, .T. ) ;
#247 = APPROVAL_PERSON_ORGANIZATION ( #185, #32, #48 ) ;
#248 = CARTESIAN_POINT ( 'NONE',  ( 0.000000000000000000, 0.000000000000000000, 0.000000000000000000 ) ) ;
#249 = DIRECTION ( 'NONE',  ( 0.000000000000000000, 0.000000000000000000, -1.000000000000000000 ) ) ;
ENDSEC;
END-ISO-10303-21;
