ISO-10303-21;
HEADER;
FILE_DESCRIPTION (( 'STEP AP203' ),
    '1' );
FILE_NAME ('Part4.STEP',
    '2020-07-27T12:42:33',
    ( '' ),
    ( '' ),
    'SwSTEP 2.0',
    'SolidWorks 2019',
    '' );
FILE_SCHEMA (( 'CONFIG_CONTROL_DESIGN' ));
ENDSEC;

DATA;
#1 = DATE_AND_TIME ( #302, #122 ) ;
#2 = EDGE_LOOP ( 'NONE', ( #23, #157, #93, #299 ) ) ;
#3 = APPROVAL_PERSON_ORGANIZATION ( #329, #393, #278 ) ;
#4 = CARTESIAN_POINT ( 'NONE',  ( 0.0000000000000000000, 0.0000000000000000000, 0.0000000000000000000 ) ) ;
#5 = EDGE_CURVE ( 'NONE', #320, #350, #294, .T. ) ;
#6 = AXIS2_PLACEMENT_3D ( 'NONE', #147, #217, #178 ) ;
#7 = CYLINDRICAL_SURFACE ( 'NONE', #100, 0.09375000000000001388 ) ;
#8 = CYLINDRICAL_SURFACE ( 'NONE', #129, 0.5025000000000000577 ) ;
#9 = PERSON_AND_ORGANIZATION ( #315, #146 ) ;
#10 = CARTESIAN_POINT ( 'NONE',  ( 0.0000000000000000000, 0.2099999999999999922, 0.5025000000000000577 ) ) ;
#11 = AXIS2_PLACEMENT_3D ( 'NONE', #253, #49, #188 ) ;
#12 = CC_DESIGN_SECURITY_CLASSIFICATION ( #324, ( #46 ) ) ;
#13 = DIRECTION ( 'NONE',  ( 0.0000000000000000000, 1.000000000000000000, 0.0000000000000000000 ) ) ;
#14 = EDGE_CURVE ( 'NONE', #380, #372, #266, .T. ) ;
#15 = AXIS2_PLACEMENT_3D ( 'NONE', #337, #13, #363 ) ;
#16 = DIRECTION ( 'NONE',  ( 0.0000000000000000000, 0.8386705679454261597, 0.5446390350150239756 ) ) ;
#17 = CIRCLE ( 'NONE', #268, 0.4255177722040750510 ) ;
#18 = DIRECTION ( 'NONE',  ( 0.0000000000000000000, -0.0000000000000000000, 1.000000000000000000 ) ) ;
#19 = CARTESIAN_POINT ( 'NONE',  ( 3.735172737399424558E-17, 0.2099999999999999367, 0.3049999999999997713 ) ) ;
#20 = DIRECTION ( 'NONE',  ( 0.0000000000000000000, 1.000000000000000000, 0.0000000000000000000 ) ) ;
#21 = FACE_OUTER_BOUND ( 'NONE', #274, .T. ) ;
#22 = DIRECTION ( 'NONE',  ( 0.0000000000000000000, 1.000000000000000000, 0.0000000000000000000 ) ) ;
#23 = ORIENTED_EDGE ( 'NONE', *, *, #379, .F. ) ;
#24 = AXIS2_PLACEMENT_3D ( 'NONE', #109, #215, #18 ) ;
#25 = VERTEX_POINT ( 'NONE', #338 ) ;
#26 = DIRECTION ( 'NONE',  ( 0.0000000000000000000, 1.000000000000000000, 0.0000000000000000000 ) ) ;
#27 = VERTEX_POINT ( 'NONE', #81 ) ;
#28 = DIRECTION ( 'NONE',  ( 0.0000000000000000000, 1.000000000000000000, 0.0000000000000000000 ) ) ;
#29 = CONICAL_SURFACE ( 'NONE', #231, 0.3049999999999997713, 0.5759586531581258884 ) ;
#30 = ORIENTED_EDGE ( 'NONE', *, *, #325, .T. ) ;
#31 = EDGE_CURVE ( 'NONE', #25, #56, #76, .T. ) ;
#32 = CIRCLE ( 'NONE', #180, 0.3244822277959249490 ) ;
#33 = ORIENTED_EDGE ( 'NONE', *, *, #152, .F. ) ;
#34 =( GEOMETRIC_REPRESENTATION_CONTEXT ( 3 ) GLOBAL_UNCERTAINTY_ASSIGNED_CONTEXT ( ( #319 ) ) GLOBAL_UNIT_ASSIGNED_CONTEXT ( ( #263, #406, #151 ) ) REPRESENTATION_CONTEXT ( 'NONE', 'WORKASPACE' ) );
#35 = CALENDAR_DATE ( 2020, 27, 7 ) ;
#36 = ORIENTED_EDGE ( 'NONE', *, *, #134, .T. ) ;
#37 = SECURITY_CLASSIFICATION_LEVEL ( 'unclassified' ) ;
#38 = ADVANCED_FACE ( 'NONE', ( #342 ), #78, .F. ) ;
#39 = PERSON_AND_ORGANIZATION_ROLE ( 'creator' ) ;
#40 = DIRECTION ( 'NONE',  ( 0.0000000000000000000, 1.000000000000000000, 0.0000000000000000000 ) ) ;
#41 = PERSON_AND_ORGANIZATION ( #315, #146 ) ;
#42 = DIRECTION ( 'NONE',  ( 0.0000000000000000000, 1.000000000000000000, 0.0000000000000000000 ) ) ;
#43 = FACE_BOUND ( 'NONE', #190, .T. ) ;
#44 = LINE ( 'NONE', #184, #259 ) ;
#45 = CARTESIAN_POINT ( 'NONE',  ( 0.0000000000000000000, 0.2099999999999999367, -0.3049999999999997713 ) ) ;
#46 = PRODUCT_DEFINITION_FORMATION_WITH_SPECIFIED_SOURCE ( 'ANY', '', #186, .NOT_KNOWN. ) ;
#47 = DIRECTION ( 'NONE',  ( 0.0000000000000000000, 1.000000000000000000, 0.0000000000000000000 ) ) ;
#48 = APPROVAL ( #214, 'UNSPECIFIED' ) ;
#49 = DIRECTION ( 'NONE',  ( 0.0000000000000000000, 1.000000000000000000, 0.0000000000000000000 ) ) ;
#50 = DIRECTION ( 'NONE',  ( 0.0000000000000000000, -1.000000000000000000, -0.0000000000000000000 ) ) ;
#51 = ORIENTED_EDGE ( 'NONE', *, *, #58, .F. ) ;
#52 = EDGE_LOOP ( 'NONE', ( #349, #383, #240, #234 ) ) ;
#53 = LOCAL_TIME ( 8, 42, 33.00000000000000000, #280 ) ;
#54 = DIRECTION ( 'NONE',  ( 0.0000000000000000000, 0.0000000000000000000, 1.000000000000000000 ) ) ;
#55 = EDGE_CURVE ( 'NONE', #236, #300, #179, .T. ) ;
#56 = VERTEX_POINT ( 'NONE', #108 ) ;
#57 = ORIENTED_EDGE ( 'NONE', *, *, #55, .T. ) ;
#58 = EDGE_CURVE ( 'NONE', #229, #381, #367, .T. ) ;
#59 = ORIENTED_EDGE ( 'NONE', *, *, #220, .T. ) ;
#60 = DIRECTION ( 'NONE',  ( 0.0000000000000000000, -0.0000000000000000000, 1.000000000000000000 ) ) ;
#61 = AXIS2_PLACEMENT_3D ( 'NONE', #292, #404, #123 ) ;
#62 = LOCAL_TIME ( 8, 42, 33.00000000000000000, #394 ) ;
#63 = ORIENTED_EDGE ( 'NONE', *, *, #89, .T. ) ;
#64 = AXIS2_PLACEMENT_3D ( 'NONE', #4, #382, #328 ) ;
#65 = AXIS2_PLACEMENT_3D ( 'NONE', #246, #279, #212 ) ;
#66 = PERSON_AND_ORGANIZATION ( #315, #146 ) ;
#67 = EDGE_CURVE ( 'NONE', #401, #300, #405, .T. ) ;
#68 = CARTESIAN_POINT ( 'NONE',  ( 0.0000000000000000000, 0.2099999999999999367, 0.0000000000000000000 ) ) ;
#69 = PERSON_AND_ORGANIZATION ( #315, #146 ) ;
#70 = LINE ( 'NONE', #173, #317 ) ;
#71 = DIRECTION ( 'NONE',  ( 0.0000000000000000000, 1.000000000000000000, 0.0000000000000000000 ) ) ;
#72 = DATE_TIME_ROLE ( 'creation_date' ) ;
#73 = DIRECTION ( 'NONE',  ( 0.0000000000000000000, 0.0000000000000000000, 1.000000000000000000 ) ) ;
#74 = FACE_OUTER_BOUND ( 'NONE', #203, .T. ) ;
#75 = DIRECTION ( 'NONE',  ( 0.0000000000000000000, -0.0000000000000000000, 1.000000000000000000 ) ) ;
#76 = CIRCLE ( 'NONE', #177, 0.09375000000000001388 ) ;
#77 = CARTESIAN_POINT ( 'NONE',  ( 5.330384016653027229E-17, 0.1799999999999999933, -0.4255177722040750510 ) ) ;
#78 = CYLINDRICAL_SURFACE ( 'NONE', #11, 0.09375000000000001388 ) ;
#79 = EDGE_CURVE ( 'NONE', #163, #380, #265, .T. ) ;
#80 = FACE_OUTER_BOUND ( 'NONE', #118, .T. ) ;
#81 = CARTESIAN_POINT ( 'NONE',  ( 3.973761216504817859E-17, 0.1799999999999999933, 0.3244822277959249490 ) ) ;
#82 = DIRECTION ( 'NONE',  ( 0.0000000000000000000, 0.0000000000000000000, 1.000000000000000000 ) ) ;
#83 = DIRECTION ( 'NONE',  ( 0.0000000000000000000, 0.0000000000000000000, 1.000000000000000000 ) ) ;
#84 = ORIENTED_EDGE ( 'NONE', *, *, #325, .F. ) ;
#85 = CARTESIAN_POINT ( 'NONE',  ( 0.0000000000000000000, 0.1799999999999999933, 0.0000000000000000000 ) ) ;
#86 = CIRCLE ( 'NONE', #327, 0.09375000000000001388 ) ;
#87 = ORIENTED_EDGE ( 'NONE', *, *, #330, .F. ) ;
#88 = DIRECTION ( 'NONE',  ( 0.0000000000000000000, 1.000000000000000000, 0.0000000000000000000 ) ) ;
#89 = EDGE_CURVE ( 'NONE', #163, #27, #257, .T. ) ;
#90 = AXIS2_PLACEMENT_3D ( 'NONE', #254, #230, #314 ) ;
#91 = CC_DESIGN_PERSON_AND_ORGANIZATION_ASSIGNMENT ( #69, #39, ( #46 ) ) ;
#92 = ORIENTED_EDGE ( 'NONE', *, *, #271, .F. ) ;
#93 = ORIENTED_EDGE ( 'NONE', *, *, #67, .T. ) ;
#94 = FACE_BOUND ( 'NONE', #117, .T. ) ;
#95 = ORIENTED_EDGE ( 'NONE', *, *, #304, .F. ) ;
#96 = VECTOR ( 'NONE', #149, 39.37007874015748143 ) ;
#97 = MECHANICAL_CONTEXT ( 'NONE', #136, 'mechanical' ) ;
#98 = ORIENTED_EDGE ( 'NONE', *, *, #281, .F. ) ;
#99 = ADVANCED_FACE ( 'NONE', ( #80, #111 ), #256, .T. ) ;
#100 = AXIS2_PLACEMENT_3D ( 'NONE', #245, #391, #308 ) ;
#101 = DIRECTION ( 'NONE',  ( 0.0000000000000000000, 0.0000000000000000000, 1.000000000000000000 ) ) ;
#102 = APPLICATION_PROTOCOL_DEFINITION ( 'international standard', 'config_control_design', 1994, #162 ) ;
#103 = CC_DESIGN_PERSON_AND_ORGANIZATION_ASSIGNMENT ( #305, #132, ( #209 ) ) ;
#104 = FACE_OUTER_BOUND ( 'NONE', #52, .T. ) ;
#105 = COORDINATED_UNIVERSAL_TIME_OFFSET ( 5, 0, .BEHIND. ) ;
#106 = DIRECTION ( 'NONE',  ( 0.0000000000000000000, 0.0000000000000000000, 1.000000000000000000 ) ) ;
#107 = APPROVAL_PERSON_ORGANIZATION ( #66, #48, #206 ) ;
#108 = CARTESIAN_POINT ( 'NONE',  ( 0.0000000000000000000, 0.2099999999999999922, 0.09375000000000001388 ) ) ;
#109 = CARTESIAN_POINT ( 'NONE',  ( 0.09375000000000001388, 0.2099999999999999367, 0.0000000000000000000 ) ) ;
#110 = DIRECTION ( 'NONE',  ( -0.0000000000000000000, -1.000000000000000000, -0.0000000000000000000 ) ) ;
#111 = FACE_BOUND ( 'NONE', #238, .T. ) ;
#112 = DIRECTION ( 'NONE',  ( 0.0000000000000000000, 0.0000000000000000000, 1.000000000000000000 ) ) ;
#113 = ADVANCED_FACE ( 'NONE', ( #283 ), #335, .T. ) ;
#114 = FACE_OUTER_BOUND ( 'NONE', #159, .T. ) ;
#115 = DIRECTION ( 'NONE',  ( 0.0000000000000000000, 1.000000000000000000, 0.0000000000000000000 ) ) ;
#116 = CARTESIAN_POINT ( 'NONE',  ( 0.0000000000000000000, 0.0000000000000000000, 0.0000000000000000000 ) ) ;
#117 = EDGE_LOOP ( 'NONE', ( #84, #264 ) ) ;
#118 = EDGE_LOOP ( 'NONE', ( #321, #400 ) ) ;
#119 = CARTESIAN_POINT ( 'NONE',  ( 0.0000000000000000000, 0.2099999999999999367, 0.0000000000000000000 ) ) ;
#120 = CC_DESIGN_DATE_AND_TIME_ASSIGNMENT ( #384, #72, ( #209 ) ) ;
#121 = AXIS2_PLACEMENT_3D ( 'NONE', #369, #42, #75 ) ;
#122 = LOCAL_TIME ( 8, 42, 33.00000000000000000, #105 ) ;
#123 = DIRECTION ( 'NONE',  ( 0.0000000000000000000, 0.0000000000000000000, 1.000000000000000000 ) ) ;
#124 = AXIS2_PLACEMENT_3D ( 'NONE', #85, #28, #196 ) ;
#125 = CONICAL_SURFACE ( 'NONE', #182, 0.4255177722040750510, 0.5759586531581250002 ) ;
#126 = PRODUCT_RELATED_PRODUCT_CATEGORY ( 'detail', '', ( #186 ) ) ;
#127 = APPROVAL ( #142, 'UNSPECIFIED' ) ;
#128 = VERTEX_POINT ( 'NONE', #77 ) ;
#129 = AXIS2_PLACEMENT_3D ( 'NONE', #210, #40, #101 ) ;
#130 = ORIENTED_EDGE ( 'NONE', *, *, #89, .F. ) ;
#131 = ORIENTED_EDGE ( 'NONE', *, *, #235, .T. ) ;
#132 = PERSON_AND_ORGANIZATION_ROLE ( 'creator' ) ;
#133 = ORIENTED_EDGE ( 'NONE', *, *, #14, .T. ) ;
#134 = EDGE_CURVE ( 'NONE', #350, #56, #44, .T. ) ;
#135 = ORIENTED_EDGE ( 'NONE', *, *, #79, .F. ) ;
#136 = APPLICATION_CONTEXT ( 'configuration controlled 3d designs of mechanical parts and assemblies' ) ;
#137 = DIRECTION ( 'NONE',  ( 0.0000000000000000000, 1.000000000000000000, 0.0000000000000000000 ) ) ;
#138 = DATE_TIME_ROLE ( 'classification_date' ) ;
#139 = DIRECTION ( 'NONE',  ( 0.0000000000000000000, 1.000000000000000000, 0.0000000000000000000 ) ) ;
#140 = APPROVAL_DATE_TIME ( #333, #48 ) ;
#141 = VECTOR ( 'NONE', #16, 39.37007874015748143 ) ;
#142 = APPROVAL_STATUS ( 'not_yet_approved' ) ;
#143 = DIRECTION ( 'NONE',  ( 0.0000000000000000000, 1.000000000000000000, 0.0000000000000000000 ) ) ;
#144 = AXIS2_PLACEMENT_3D ( 'NONE', #399, #115, #82 ) ;
#145 = CARTESIAN_POINT ( 'NONE',  ( 0.0000000000000000000, 0.2099999999999999922, 0.0000000000000000000 ) ) ;
#146 = ORGANIZATION ( 'UNSPECIFIED', 'UNSPECIFIED', '' ) ;
#147 = CARTESIAN_POINT ( 'NONE',  ( 0.0000000000000000000, 0.0000000000000000000, 0.0000000000000000000 ) ) ;
#148 = DIRECTION ( 'NONE',  ( 6.669904509218522881E-17, 0.8386705679454261597, -0.5446390350150239756 ) ) ;
#149 = DIRECTION ( 'NONE',  ( 0.0000000000000000000, -0.8386705679454256046, -0.5446390350150246418 ) ) ;
#150 = FACE_OUTER_BOUND ( 'NONE', #207, .T. ) ;
#151 =( NAMED_UNIT ( * ) SI_UNIT ( $, .STERADIAN. ) SOLID_ANGLE_UNIT ( ) );
#152 = EDGE_CURVE ( 'NONE', #381, #244, #248, .T. ) ;
#153 = CARTESIAN_POINT ( 'NONE',  ( 0.0000000000000000000, 0.2099999999999999367, 0.0000000000000000000 ) ) ;
#154 = CARTESIAN_POINT ( 'NONE',  ( 0.0000000000000000000, 0.0000000000000000000, 0.5025000000000000577 ) ) ;
#155 = CARTESIAN_POINT ( 'NONE',  ( 0.0000000000000000000, 0.2099999999999999367, 0.4450000000000001732 ) ) ;
#156 =( LENGTH_UNIT ( ) NAMED_UNIT ( * ) SI_UNIT ( $, .METRE. ) );
#157 = ORIENTED_EDGE ( 'NONE', *, *, #323, .T. ) ;
#158 = ORIENTED_EDGE ( 'NONE', *, *, #276, .T. ) ;
#159 = EDGE_LOOP ( 'NONE', ( #411, #195, #57, #30 ) ) ;
#160 = FACE_OUTER_BOUND ( 'NONE', #297, .T. ) ;
#161 = CIRCLE ( 'NONE', #144, 0.3244822277959249490 ) ;
#162 = APPLICATION_CONTEXT ( 'configuration controlled 3d designs of mechanical parts and assemblies' ) ;
#163 = VERTEX_POINT ( 'NONE', #252 ) ;
#164 = ORIENTED_EDGE ( 'NONE', *, *, #220, .F. ) ;
#165 = ORIENTED_EDGE ( 'NONE', *, *, #271, .T. ) ;
#166 = EDGE_CURVE ( 'NONE', #56, #25, #205, .T. ) ;
#167 = ORIENTED_EDGE ( 'NONE', *, *, #79, .T. ) ;
#168 = PLANE ( 'NONE',  #295 ) ;
#169 = DATE_AND_TIME ( #208, #62 ) ;
#170 = PERSON_AND_ORGANIZATION_ROLE ( 'design_owner' ) ;
#171 = ADVANCED_FACE ( 'NONE', ( #219, #43 ), #181, .T. ) ;
#172 = APPROVAL_DATE_TIME ( #277, #127 ) ;
#173 = CARTESIAN_POINT ( 'NONE',  ( 1.148106374200643863E-17, 0.0000000000000000000, -0.09375000000000001388 ) ) ;
#174 = PERSON_AND_ORGANIZATION ( #315, #146 ) ;
#175 = CARTESIAN_POINT ( 'NONE',  ( 0.0000000000000000000, 0.0000000000000000000, 0.0000000000000000000 ) ) ;
#176 = DIRECTION ( 'NONE',  ( 0.0000000000000000000, 1.000000000000000000, 0.0000000000000000000 ) ) ;
#177 = AXIS2_PLACEMENT_3D ( 'NONE', #284, #226, #396 ) ;
#178 = DIRECTION ( 'NONE',  ( 0.0000000000000000000, 0.0000000000000000000, 1.000000000000000000 ) ) ;
#179 = LINE ( 'NONE', #311, #141 ) ;
#180 = AXIS2_PLACEMENT_3D ( 'NONE', #227, #22, #189 ) ;
#181 = PLANE ( 'NONE',  #24 ) ;
#182 = AXIS2_PLACEMENT_3D ( 'NONE', #395, #364, #106 ) ;
#183 = ADVANCED_FACE ( 'NONE', ( #150 ), #8, .T. ) ;
#184 = CARTESIAN_POINT ( 'NONE',  ( 0.0000000000000000000, 0.0000000000000000000, 0.09375000000000001388 ) ) ;
#185 = DIRECTION ( 'NONE',  ( 0.0000000000000000000, 1.000000000000000000, 0.0000000000000000000 ) ) ;
#186 = PRODUCT ( 'Part4', 'Part4', '', ( #97 ) ) ;
#187 = DIRECTION ( 'NONE',  ( 0.0000000000000000000, 0.0000000000000000000, -1.000000000000000000 ) ) ;
#188 = DIRECTION ( 'NONE',  ( 0.0000000000000000000, 0.0000000000000000000, 1.000000000000000000 ) ) ;
#189 = DIRECTION ( 'NONE',  ( 0.0000000000000000000, 0.0000000000000000000, 1.000000000000000000 ) ) ;
#190 = EDGE_LOOP ( 'NONE', ( #390, #199 ) ) ;
#191 = CC_DESIGN_PERSON_AND_ORGANIZATION_ASSIGNMENT ( #239, #170, ( #186 ) ) ;
#192 = PLANE ( 'NONE',  #358 ) ;
#193 = CIRCLE ( 'NONE', #412, 0.5025000000000000577 ) ;
#194 = ORIENTED_EDGE ( 'NONE', *, *, #152, .T. ) ;
#195 = ORIENTED_EDGE ( 'NONE', *, *, #354, .F. ) ;
#196 = DIRECTION ( 'NONE',  ( 0.0000000000000000000, 0.0000000000000000000, 1.000000000000000000 ) ) ;
#197 = DIMENSIONAL_EXPONENTS ( 1.000000000000000000, 0.0000000000000000000, 0.0000000000000000000, 0.0000000000000000000, 0.0000000000000000000, 0.0000000000000000000, 0.0000000000000000000 ) ;
#198 = ORIENTED_EDGE ( 'NONE', *, *, #166, .T. ) ;
#199 = ORIENTED_EDGE ( 'NONE', *, *, #31, .F. ) ;
#200 = CARTESIAN_POINT ( 'NONE',  ( 0.0000000000000000000, 0.0000000000000000000, 0.0000000000000000000 ) ) ;
#201 = CLOSED_SHELL ( 'NONE', ( #251, #183, #228, #346, #409, #171, #38, #368, #113, #269, #348, #99 ) ) ;
#202 = EDGE_CURVE ( 'NONE', #320, #25, #70, .T. ) ;
#203 = EDGE_LOOP ( 'NONE', ( #59, #194 ) ) ;
#204 = AXIS2_PLACEMENT_3D ( 'NONE', #68, #71, #213 ) ;
#205 = CIRCLE ( 'NONE', #389, 0.09375000000000001388 ) ;
#206 = APPROVAL_ROLE ( '' ) ;
#207 = EDGE_LOOP ( 'NONE', ( #131, #316, #164, #272 ) ) ;
#208 = CALENDAR_DATE ( 2020, 27, 7 ) ;
#209 = PRODUCT_DEFINITION ( 'UNKNOWN', '', #46, #403 ) ;
#210 = CARTESIAN_POINT ( 'NONE',  ( 0.0000000000000000000, 0.0000000000000000000, 0.0000000000000000000 ) ) ;
#211 = PERSON_AND_ORGANIZATION_ROLE ( 'design_supplier' ) ;
#212 = DIRECTION ( 'NONE',  ( 0.0000000000000000000, 0.0000000000000000000, 1.000000000000000000 ) ) ;
#213 = DIRECTION ( 'NONE',  ( 0.0000000000000000000, 0.0000000000000000000, 1.000000000000000000 ) ) ;
#214 = APPROVAL_STATUS ( 'not_yet_approved' ) ;
#215 = DIRECTION ( 'NONE',  ( 0.0000000000000000000, 1.000000000000000000, 0.0000000000000000000 ) ) ;
#216 = CARTESIAN_POINT ( 'NONE',  ( 6.153850165715450415E-17, 0.0000000000000000000, -0.5025000000000000577 ) ) ;
#217 = DIRECTION ( 'NONE',  ( 0.0000000000000000000, 1.000000000000000000, 0.0000000000000000000 ) ) ;
#218 = CARTESIAN_POINT ( 'NONE',  ( 5.211089777100330578E-17, 0.1799999999999999933, -0.4255177722040750510 ) ) ;
#219 = FACE_OUTER_BOUND ( 'NONE', #344, .T. ) ;
#220 = EDGE_CURVE ( 'NONE', #244, #381, #362, .T. ) ;
#221 = AXIS2_PLACEMENT_3D ( 'NONE', #153, #397, #112 ) ;
#222 = CARTESIAN_POINT ( 'NONE',  ( 6.153850165715450415E-17, 0.0000000000000000000, -0.5025000000000000577 ) ) ;
#223 = AXIS2_PLACEMENT_3D ( 'NONE', #374, #224, #318 ) ;
#224 = DIRECTION ( 'NONE',  ( 0.0000000000000000000, 1.000000000000000000, 0.0000000000000000000 ) ) ;
#225 = MANIFOLD_SOLID_BREP ( 'Revolve1', #201 ) ;
#226 = DIRECTION ( 'NONE',  ( 0.0000000000000000000, 1.000000000000000000, 0.0000000000000000000 ) ) ;
#227 = CARTESIAN_POINT ( 'NONE',  ( 0.0000000000000000000, 0.1799999999999999933, 0.0000000000000000000 ) ) ;
#228 = ADVANCED_FACE ( 'NONE', ( #104 ), #7, .F. ) ;
#229 = VERTEX_POINT ( 'NONE', #216 ) ;
#230 = DIRECTION ( 'NONE',  ( -0.0000000000000000000, -1.000000000000000000, -0.0000000000000000000 ) ) ;
#231 = AXIS2_PLACEMENT_3D ( 'NONE', #119, #110, #187 ) ;
#232 = CARTESIAN_POINT ( 'NONE',  ( 0.0000000000000000000, 0.2099999999999999367, -0.3049999999999997713 ) ) ;
#233 = CC_DESIGN_APPROVAL ( #127, ( #209 ) ) ;
#234 = ORIENTED_EDGE ( 'NONE', *, *, #134, .F. ) ;
#235 = EDGE_CURVE ( 'NONE', #301, #229, #193, .T. ) ;
#236 = VERTEX_POINT ( 'NONE', #282 ) ;
#237 = CARTESIAN_POINT ( 'NONE',  ( 0.4450000000000001732, 0.2099999999999999367, 0.0000000000000000000 ) ) ;
#238 = EDGE_LOOP ( 'NONE', ( #98, #95 ) ) ;
#239 = PERSON_AND_ORGANIZATION ( #315, #146 ) ;
#240 = ORIENTED_EDGE ( 'NONE', *, *, #31, .T. ) ;
#241 = CIRCLE ( 'NONE', #204, 0.4450000000000001732 ) ;
#242 = LOCAL_TIME ( 8, 42, 33.00000000000000000, #356 ) ;
#243 = APPROVAL_DATE_TIME ( #1, #393 ) ;
#244 = VERTEX_POINT ( 'NONE', #10 ) ;
#245 = CARTESIAN_POINT ( 'NONE',  ( 0.0000000000000000000, 0.0000000000000000000, 0.0000000000000000000 ) ) ;
#246 = CARTESIAN_POINT ( 'NONE',  ( 0.0000000000000000000, 0.2099999999999999922, 0.0000000000000000000 ) ) ;
#247 = APPROVAL_ROLE ( '' ) ;
#248 = CIRCLE ( 'NONE', #15, 0.5025000000000000577 ) ;
#249 = APPROVAL_PERSON_ORGANIZATION ( #9, #127, #247 ) ;
#250 = DIRECTION ( 'NONE',  ( 0.0000000000000000000, 0.0000000000000000000, 1.000000000000000000 ) ) ;
#251 = ADVANCED_FACE ( 'NONE', ( #334 ), #125, .F. ) ;
#252 = CARTESIAN_POINT ( 'NONE',  ( 3.854466976952121209E-17, 0.2099999999999999367, 0.3049999999999997713 ) ) ;
#253 = CARTESIAN_POINT ( 'NONE',  ( 0.0000000000000000000, 0.0000000000000000000, 0.0000000000000000000 ) ) ;
#254 = CARTESIAN_POINT ( 'NONE',  ( 0.0000000000000000000, 0.2099999999999999367, 0.0000000000000000000 ) ) ;
#255 = CC_DESIGN_APPROVAL ( #393, ( #324 ) ) ;
#256 = PLANE ( 'NONE',  #121 ) ;
#257 = LINE ( 'NONE', #19, #373 ) ;
#258 = CARTESIAN_POINT ( 'NONE',  ( 1.148106374200643863E-17, 0.0000000000000000000, -0.09375000000000001388 ) ) ;
#259 = VECTOR ( 'NONE', #176, 39.37007874015748143 ) ;
#260 = FACE_OUTER_BOUND ( 'NONE', #303, .T. ) ;
#261 = ORIENTED_EDGE ( 'NONE', *, *, #304, .T. ) ;
#262 = ORIENTED_EDGE ( 'NONE', *, *, #330, .T. ) ;
#263 =( CONVERSION_BASED_UNIT ( 'INCH', #402 ) LENGTH_UNIT ( ) NAMED_UNIT ( #197 ) );
#264 = ORIENTED_EDGE ( 'NONE', *, *, #67, .F. ) ;
#265 = CIRCLE ( 'NONE', #221, 0.3049999999999997713 ) ;
#266 = LINE ( 'NONE', #45, #96 ) ;
#267 = CONICAL_SURFACE ( 'NONE', #124, 0.4255177722040750510, 0.5759586531581250002 ) ;
#268 = AXIS2_PLACEMENT_3D ( 'NONE', #291, #26, #83 ) ;
#269 = ADVANCED_FACE ( 'NONE', ( #74, #94 ), #168, .T. ) ;
#270 = ADVANCED_BREP_SHAPE_REPRESENTATION ( 'Part4', ( #225, #408 ), #34 ) ;
#271 = EDGE_CURVE ( 'NONE', #229, #301, #310, .T. ) ;
#272 = ORIENTED_EDGE ( 'NONE', *, *, #340, .F. ) ;
#273 = DIRECTION ( 'NONE',  ( 0.0000000000000000000, 0.0000000000000000000, 1.000000000000000000 ) ) ;
#274 = EDGE_LOOP ( 'NONE', ( #130, #87, #133, #331 ) ) ;
#275 = SHAPE_DEFINITION_REPRESENTATION ( #341, #270 ) ;
#276 = EDGE_CURVE ( 'NONE', #350, #320, #86, .T. ) ;
#277 = DATE_AND_TIME ( #35, #242 ) ;
#278 = APPROVAL_ROLE ( '' ) ;
#279 = DIRECTION ( 'NONE',  ( 0.0000000000000000000, 1.000000000000000000, 0.0000000000000000000 ) ) ;
#280 = COORDINATED_UNIVERSAL_TIME_OFFSET ( 5, 0, .BEHIND. ) ;
#281 = EDGE_CURVE ( 'NONE', #372, #27, #32, .T. ) ;
#282 = CARTESIAN_POINT ( 'NONE',  ( 0.0000000000000000000, 0.1799999999999999933, 0.4255177722040750510 ) ) ;
#283 = FACE_OUTER_BOUND ( 'NONE', #290, .T. ) ;
#284 = CARTESIAN_POINT ( 'NONE',  ( 0.0000000000000000000, 0.2099999999999999922, 0.0000000000000000000 ) ) ;
#285 = DIRECTION ( 'NONE',  ( 0.0000000000000000000, 0.0000000000000000000, 1.000000000000000000 ) ) ;
#286 = LINE ( 'NONE', #154, #407 ) ;
#287 = CARTESIAN_POINT ( 'NONE',  ( 0.0000000000000000000, 0.0000000000000000000, 0.5025000000000000577 ) ) ;
#288 = CARTESIAN_POINT ( 'NONE',  ( 0.0000000000000000000, 0.1799999999999999933, -0.3244822277959249490 ) ) ;
#289 = ORIENTED_EDGE ( 'NONE', *, *, #235, .F. ) ;
#290 = EDGE_LOOP ( 'NONE', ( #51, #165, #410, #33 ) ) ;
#291 = CARTESIAN_POINT ( 'NONE',  ( 0.0000000000000000000, 0.1799999999999999933, 0.0000000000000000000 ) ) ;
#292 = CARTESIAN_POINT ( 'NONE',  ( 0.0000000000000000000, 0.0000000000000000000, 0.0000000000000000000 ) ) ;
#293 = DIRECTION ( 'NONE',  ( 0.0000000000000000000, 0.0000000000000000000, -1.000000000000000000 ) ) ;
#294 = CIRCLE ( 'NONE', #61, 0.09375000000000001388 ) ;
#295 = AXIS2_PLACEMENT_3D ( 'NONE', #237, #351, #60 ) ;
#296 = CC_DESIGN_PERSON_AND_ORGANIZATION_ASSIGNMENT ( #174, #306, ( #324 ) ) ;
#297 = EDGE_LOOP ( 'NONE', ( #289, #92 ) ) ;
#298 = ORIENTED_EDGE ( 'NONE', *, *, #5, .T. ) ;
#299 = ORIENTED_EDGE ( 'NONE', *, *, #55, .F. ) ;
#300 = VERTEX_POINT ( 'NONE', #155 ) ;
#301 = VERTEX_POINT ( 'NONE', #287 ) ;
#302 = CALENDAR_DATE ( 2020, 27, 7 ) ;
#303 = EDGE_LOOP ( 'NONE', ( #135, #63, #261, #345 ) ) ;
#304 = EDGE_CURVE ( 'NONE', #27, #372, #161, .T. ) ;
#305 = PERSON_AND_ORGANIZATION ( #315, #146 ) ;
#306 = PERSON_AND_ORGANIZATION_ROLE ( 'classification_officer' ) ;
#307 = APPLICATION_PROTOCOL_DEFINITION ( 'international standard', 'config_control_design', 1994, #136 ) ;
#308 = DIRECTION ( 'NONE',  ( 0.0000000000000000000, 0.0000000000000000000, 1.000000000000000000 ) ) ;
#309 = AXIS2_PLACEMENT_3D ( 'NONE', #377, #88, #54 ) ;
#310 = CIRCLE ( 'NONE', #64, 0.5025000000000000577 ) ;
#311 = CARTESIAN_POINT ( 'NONE',  ( 0.0000000000000000000, 0.1799999999999999933, 0.4255177722040750510 ) ) ;
#312 = CARTESIAN_POINT ( 'NONE',  ( 0.0000000000000000000, 0.2099999999999999367, 0.0000000000000000000 ) ) ;
#313 = CARTESIAN_POINT ( 'NONE',  ( 5.449678256205723880E-17, 0.2099999999999999367, -0.4450000000000001732 ) ) ;
#314 = DIRECTION ( 'NONE',  ( 0.0000000000000000000, 0.0000000000000000000, -1.000000000000000000 ) ) ;
#315 = PERSON ( 'UNSPECIFIED', 'UNSPECIFIED', 'UNSPECIFIED', ('UNSPECIFIED'), ('UNSPECIFIED'), ('UNSPECIFIED') ) ;
#316 = ORIENTED_EDGE ( 'NONE', *, *, #58, .T. ) ;
#317 = VECTOR ( 'NONE', #139, 39.37007874015748143 ) ;
#318 = DIRECTION ( 'NONE',  ( 0.0000000000000000000, 0.0000000000000000000, 1.000000000000000000 ) ) ;
#319 = UNCERTAINTY_MEASURE_WITH_UNIT (LENGTH_MEASURE( 1.000000000000000082E-05 ), #263, 'distance_accuracy_value', 'NONE');
#320 = VERTEX_POINT ( 'NONE', #258 ) ;
#321 = ORIENTED_EDGE ( 'NONE', *, *, #354, .T. ) ;
#322 = CARTESIAN_POINT ( 'NONE',  ( 0.0000000000000000000, 0.0000000000000000000, 0.09375000000000001388 ) ) ;
#323 = EDGE_CURVE ( 'NONE', #128, #401, #343, .T. ) ;
#324 = SECURITY_CLASSIFICATION ( '', '', #37 ) ;
#325 = EDGE_CURVE ( 'NONE', #300, #401, #241, .T. ) ;
#326 = DIRECTION ( 'NONE',  ( 0.0000000000000000000, 0.0000000000000000000, 1.000000000000000000 ) ) ;
#327 = AXIS2_PLACEMENT_3D ( 'NONE', #200, #137, #326 ) ;
#328 = DIRECTION ( 'NONE',  ( 0.0000000000000000000, 0.0000000000000000000, 1.000000000000000000 ) ) ;
#329 = PERSON_AND_ORGANIZATION ( #315, #146 ) ;
#330 = EDGE_CURVE ( 'NONE', #380, #163, #387, .T. ) ;
#331 = ORIENTED_EDGE ( 'NONE', *, *, #281, .T. ) ;
#332 = APPROVAL_STATUS ( 'not_yet_approved' ) ;
#333 = DATE_AND_TIME ( #359, #53 ) ;
#334 = FACE_OUTER_BOUND ( 'NONE', #2, .T. ) ;
#335 = CYLINDRICAL_SURFACE ( 'NONE', #6, 0.5025000000000000577 ) ;
#336 = VECTOR ( 'NONE', #185, 39.37007874015748143 ) ;
#337 = CARTESIAN_POINT ( 'NONE',  ( 0.0000000000000000000, 0.2099999999999999922, 0.0000000000000000000 ) ) ;
#338 = CARTESIAN_POINT ( 'NONE',  ( 1.148106374200643863E-17, 0.2099999999999999922, -0.09375000000000001388 ) ) ;
#339 = CARTESIAN_POINT ( 'NONE',  ( 0.5025000000000000577, 0.0000000000000000000, 0.0000000000000000000 ) ) ;
#340 = EDGE_CURVE ( 'NONE', #301, #244, #286, .T. ) ;
#341 = PRODUCT_DEFINITION_SHAPE ( 'NONE', 'NONE',  #209 ) ;
#342 = FACE_OUTER_BOUND ( 'NONE', #376, .T. ) ;
#343 = LINE ( 'NONE', #218, #375 ) ;
#344 = EDGE_LOOP ( 'NONE', ( #262, #167 ) ) ;
#345 = ORIENTED_EDGE ( 'NONE', *, *, #14, .F. ) ;
#346 = ADVANCED_FACE ( 'NONE', ( #260 ), #29, .T. ) ;
#347 = CONICAL_SURFACE ( 'NONE', #90, 0.3049999999999997713, 0.5759586531581258884 ) ;
#348 = ADVANCED_FACE ( 'NONE', ( #114 ), #267, .F. ) ;
#349 = ORIENTED_EDGE ( 'NONE', *, *, #5, .F. ) ;
#350 = VERTEX_POINT ( 'NONE', #322 ) ;
#351 = DIRECTION ( 'NONE',  ( 0.0000000000000000000, 1.000000000000000000, 0.0000000000000000000 ) ) ;
#352 = ORIENTED_EDGE ( 'NONE', *, *, #202, .F. ) ;
#353 = CC_DESIGN_APPROVAL ( #48, ( #46 ) ) ;
#354 = EDGE_CURVE ( 'NONE', #236, #128, #355, .T. ) ;
#355 = CIRCLE ( 'NONE', #223, 0.4255177722040750510 ) ;
#356 = COORDINATED_UNIVERSAL_TIME_OFFSET ( 5, 0, .BEHIND. ) ;
#357 = EDGE_LOOP ( 'NONE', ( #158, #298 ) ) ;
#358 = AXIS2_PLACEMENT_3D ( 'NONE', #339, #50, #293 ) ;
#359 = CALENDAR_DATE ( 2020, 27, 7 ) ;
#360 = CC_DESIGN_PERSON_AND_ORGANIZATION_ASSIGNMENT ( #41, #211, ( #46 ) ) ;
#361 = COORDINATED_UNIVERSAL_TIME_OFFSET ( 5, 0, .BEHIND. ) ;
#362 = CIRCLE ( 'NONE', #65, 0.5025000000000000577 ) ;
#363 = DIRECTION ( 'NONE',  ( 0.0000000000000000000, 0.0000000000000000000, 1.000000000000000000 ) ) ;
#364 = DIRECTION ( 'NONE',  ( 0.0000000000000000000, 1.000000000000000000, 0.0000000000000000000 ) ) ;
#365 = DIRECTION ( 'NONE',  ( 0.0000000000000000000, 1.000000000000000000, 0.0000000000000000000 ) ) ;
#366 = DIRECTION ( 'NONE',  ( 6.669904509218531509E-17, -0.8386705679454256046, 0.5446390350150246418 ) ) ;
#367 = LINE ( 'NONE', #222, #336 ) ;
#368 = ADVANCED_FACE ( 'NONE', ( #371, #160 ), #192, .T. ) ;
#369 = CARTESIAN_POINT ( 'NONE',  ( 0.3244822277959249490, 0.1799999999999999933, 0.0000000000000000000 ) ) ;
#370 = CC_DESIGN_DATE_AND_TIME_ASSIGNMENT ( #169, #138, ( #324 ) ) ;
#371 = FACE_BOUND ( 'NONE', #357, .T. ) ;
#372 = VERTEX_POINT ( 'NONE', #288 ) ;
#373 = VECTOR ( 'NONE', #366, 39.37007874015748143 ) ;
#374 = CARTESIAN_POINT ( 'NONE',  ( 0.0000000000000000000, 0.1799999999999999933, 0.0000000000000000000 ) ) ;
#375 = VECTOR ( 'NONE', #148, 39.37007874015748143 ) ;
#376 = EDGE_LOOP ( 'NONE', ( #352, #385, #36, #198 ) ) ;
#377 = CARTESIAN_POINT ( 'NONE',  ( 0.0000000000000000000, 0.2099999999999999367, 0.0000000000000000000 ) ) ;
#378 = LOCAL_TIME ( 8, 42, 33.00000000000000000, #361 ) ;
#379 = EDGE_CURVE ( 'NONE', #128, #236, #17, .T. ) ;
#380 = VERTEX_POINT ( 'NONE', #232 ) ;
#381 = VERTEX_POINT ( 'NONE', #398 ) ;
#382 = DIRECTION ( 'NONE',  ( 0.0000000000000000000, 1.000000000000000000, 0.0000000000000000000 ) ) ;
#383 = ORIENTED_EDGE ( 'NONE', *, *, #202, .T. ) ;
#384 = DATE_AND_TIME ( #388, #378 ) ;
#385 = ORIENTED_EDGE ( 'NONE', *, *, #276, .F. ) ;
#386 = AXIS2_PLACEMENT_3D ( 'NONE', #312, #20, #285 ) ;
#387 = CIRCLE ( 'NONE', #309, 0.3049999999999997713 ) ;
#388 = CALENDAR_DATE ( 2020, 27, 7 ) ;
#389 = AXIS2_PLACEMENT_3D ( 'NONE', #145, #365, #73 ) ;
#390 = ORIENTED_EDGE ( 'NONE', *, *, #166, .F. ) ;
#391 = DIRECTION ( 'NONE',  ( 0.0000000000000000000, 1.000000000000000000, 0.0000000000000000000 ) ) ;
#392 = DIRECTION ( 'NONE',  ( 1.000000000000000000, 0.0000000000000000000, 0.0000000000000000000 ) ) ;
#393 = APPROVAL ( #332, 'UNSPECIFIED' ) ;
#394 = COORDINATED_UNIVERSAL_TIME_OFFSET ( 5, 0, .BEHIND. ) ;
#395 = CARTESIAN_POINT ( 'NONE',  ( 0.0000000000000000000, 0.1799999999999999933, 0.0000000000000000000 ) ) ;
#396 = DIRECTION ( 'NONE',  ( 0.0000000000000000000, 0.0000000000000000000, 1.000000000000000000 ) ) ;
#397 = DIRECTION ( 'NONE',  ( 0.0000000000000000000, 1.000000000000000000, 0.0000000000000000000 ) ) ;
#398 = CARTESIAN_POINT ( 'NONE',  ( 6.153850165715450415E-17, 0.2099999999999999922, -0.5025000000000000577 ) ) ;
#399 = CARTESIAN_POINT ( 'NONE',  ( 0.0000000000000000000, 0.1799999999999999933, 0.0000000000000000000 ) ) ;
#400 = ORIENTED_EDGE ( 'NONE', *, *, #379, .T. ) ;
#401 = VERTEX_POINT ( 'NONE', #313 ) ;
#402 = LENGTH_MEASURE_WITH_UNIT ( LENGTH_MEASURE( 0.02539999999999999897 ), #156 );
#403 = DESIGN_CONTEXT ( 'detailed design', #162, 'design' ) ;
#404 = DIRECTION ( 'NONE',  ( 0.0000000000000000000, 1.000000000000000000, 0.0000000000000000000 ) ) ;
#405 = CIRCLE ( 'NONE', #386, 0.4450000000000001732 ) ;
#406 =( NAMED_UNIT ( * ) PLANE_ANGLE_UNIT ( ) SI_UNIT ( $, .RADIAN. ) );
#407 = VECTOR ( 'NONE', #47, 39.37007874015748143 ) ;
#408 = AXIS2_PLACEMENT_3D ( 'NONE', #116, #273, #392 ) ;
#409 = ADVANCED_FACE ( 'NONE', ( #21 ), #347, .T. ) ;
#410 = ORIENTED_EDGE ( 'NONE', *, *, #340, .T. ) ;
#411 = ORIENTED_EDGE ( 'NONE', *, *, #323, .F. ) ;
#412 = AXIS2_PLACEMENT_3D ( 'NONE', #175, #143, #250 ) ;
ENDSEC;
END-ISO-10303-21;
