ISO-10303-21;
HEADER;
FILE_DESCRIPTION (( 'STEP AP203' ),
    '1' );
FILE_NAME ('G22.STEP',
    '2020-07-27T12:43:05',
    ( '' ),
    ( '' ),
    'SwSTEP 2.0',
    'SolidWorks 2019',
    '' );
FILE_SCHEMA (( 'CONFIG_CONTROL_DESIGN' ));
ENDSEC;

DATA;
#1 = PERSON_AND_ORGANIZATION ( #190, #250 ) ;
#2 = DESIGN_CONTEXT ( 'detailed design', #202, 'design' ) ;
#3 = COORDINATED_UNIVERSAL_TIME_OFFSET ( 5, 0, .BEHIND. ) ;
#4 = ADVANCED_BREP_SHAPE_REPRESENTATION ( 'G22', ( #201, #93 ), #241 ) ;
#5 = LOCAL_TIME ( 8, 43, 5.000000000000000000, #251 ) ;
#6 = AXIS2_PLACEMENT_3D ( 'NONE', #7, #42, #64 ) ;
#7 = CARTESIAN_POINT ( 'NONE',  ( 0.0000000000000000000, 0.0000000000000000000, 0.0000000000000000000 ) ) ;
#8 = DIRECTION ( 'NONE',  ( 0.0000000000000000000, 0.0000000000000000000, 1.000000000000000000 ) ) ;
#9 = EDGE_LOOP ( 'NONE', ( #234, #188 ) ) ;
#10 = ORIENTED_EDGE ( 'NONE', *, *, #74, .F. ) ;
#11 = DIRECTION ( 'NONE',  ( 0.0000000000000000000, 0.0000000000000000000, 1.000000000000000000 ) ) ;
#12 = VERTEX_POINT ( 'NONE', #124 ) ;
#13 = DIRECTION ( 'NONE',  ( 0.0000000000000000000, 1.000000000000000000, 0.0000000000000000000 ) ) ;
#14 = VERTEX_POINT ( 'NONE', #161 ) ;
#15 = CALENDAR_DATE ( 2020, 27, 7 ) ;
#16 = CIRCLE ( 'NONE', #75, 0.1250000000000000000 ) ;
#17 = LOCAL_TIME ( 8, 43, 5.000000000000000000, #3 ) ;
#18 = VERTEX_POINT ( 'NONE', #182 ) ;
#19 = PERSON_AND_ORGANIZATION ( #190, #250 ) ;
#20 = DIRECTION ( 'NONE',  ( -0.0000000000000000000, 1.000000000000000000, -0.0000000000000000000 ) ) ;
#21 = APPROVAL_DATE_TIME ( #220, #102 ) ;
#22 = CC_DESIGN_PERSON_AND_ORGANIZATION_ASSIGNMENT ( #19, #105, ( #218 ) ) ;
#23 = AXIS2_PLACEMENT_3D ( 'NONE', #40, #142, #8 ) ;
#24 = CARTESIAN_POINT ( 'NONE',  ( 0.0000000000000000000, 0.2500000000000000000, 0.0000000000000000000 ) ) ;
#25 = ORIENTED_EDGE ( 'NONE', *, *, #113, .T. ) ;
#26 = CARTESIAN_POINT ( 'NONE',  ( 0.0000000000000000000, 0.0000000000000000000, 0.0000000000000000000 ) ) ;
#27 = CARTESIAN_POINT ( 'NONE',  ( 8.419446744138052529E-17, 0.2500000000000000000, 0.6875000000000000000 ) ) ;
#28 = ORIENTED_EDGE ( 'NONE', *, *, #224, .F. ) ;
#29 = DIRECTION ( 'NONE',  ( 0.0000000000000000000, 1.000000000000000000, 0.0000000000000000000 ) ) ;
#30 = ORIENTED_EDGE ( 'NONE', *, *, #90, .T. ) ;
#31 = VERTEX_POINT ( 'NONE', #232 ) ;
#32 = EDGE_CURVE ( 'NONE', #43, #67, #222, .T. ) ;
#33 = APPROVAL_STATUS ( 'not_yet_approved' ) ;
#34 = APPROVAL_PERSON_ORGANIZATION ( #171, #77, #37 ) ;
#35 = CARTESIAN_POINT ( 'NONE',  ( 0.0000000000000000000, 0.0000000000000000000, 0.1250000000000000000 ) ) ;
#36 = DATE_AND_TIME ( #15, #76 ) ;
#37 = APPROVAL_ROLE ( '' ) ;
#38 = CC_DESIGN_DATE_AND_TIME_ASSIGNMENT ( #49, #151, ( #211 ) ) ;
#39 = VECTOR ( 'NONE', #20, 39.37007874015748143 ) ;
#40 = CARTESIAN_POINT ( 'NONE',  ( 0.0000000000000000000, 0.2500000000000000000, 0.0000000000000000000 ) ) ;
#41 = CYLINDRICAL_SURFACE ( 'NONE', #112, 0.1250000000000000000 ) ;
#42 = DIRECTION ( 'NONE',  ( 0.0000000000000000000, 1.000000000000000000, 0.0000000000000000000 ) ) ;
#43 = VERTEX_POINT ( 'NONE', #207 ) ;
#44 = CARTESIAN_POINT ( 'NONE',  ( 1.530808498934191509E-17, 0.0000000000000000000, -0.1250000000000000000 ) ) ;
#45 = APPROVAL_STATUS ( 'not_yet_approved' ) ;
#46 = FACE_OUTER_BOUND ( 'NONE', #9, .T. ) ;
#47 = CALENDAR_DATE ( 2020, 27, 7 ) ;
#48 = DIRECTION ( 'NONE',  ( 0.0000000000000000000, 1.000000000000000000, 0.0000000000000000000 ) ) ;
#49 = DATE_AND_TIME ( #66, #5 ) ;
#50 = CIRCLE ( 'NONE', #107, 0.1250000000000000000 ) ;
#51 = ADVANCED_FACE ( 'NONE', ( #225, #46 ), #128, .T. ) ;
#52 = COORDINATED_UNIVERSAL_TIME_OFFSET ( 5, 0, .BEHIND. ) ;
#53 = EDGE_CURVE ( 'NONE', #184, #31, #16, .T. ) ;
#54 = CC_DESIGN_PERSON_AND_ORGANIZATION_ASSIGNMENT ( #1, #91, ( #218 ) ) ;
#55 = DIRECTION ( 'NONE',  ( 0.0000000000000000000, 0.0000000000000000000, -1.000000000000000000 ) ) ;
#56 = AXIS2_PLACEMENT_3D ( 'NONE', #181, #158, #138 ) ;
#57 = DIRECTION ( 'NONE',  ( -0.0000000000000000000, -1.000000000000000000, -0.0000000000000000000 ) ) ;
#58 = ORIENTED_EDGE ( 'NONE', *, *, #113, .F. ) ;
#59 = DIRECTION ( 'NONE',  ( 0.0000000000000000000, 0.0000000000000000000, 1.000000000000000000 ) ) ;
#60 = DIRECTION ( 'NONE',  ( 0.0000000000000000000, 1.000000000000000000, 0.0000000000000000000 ) ) ;
#61 = LENGTH_MEASURE_WITH_UNIT ( LENGTH_MEASURE( 0.02539999999999999897 ), #183 );
#62 = DIRECTION ( 'NONE',  ( 0.0000000000000000000, 1.000000000000000000, 0.0000000000000000000 ) ) ;
#63 = CC_DESIGN_PERSON_AND_ORGANIZATION_ASSIGNMENT ( #86, #89, ( #152 ) ) ;
#64 = DIRECTION ( 'NONE',  ( 0.0000000000000000000, 0.0000000000000000000, 1.000000000000000000 ) ) ;
#65 = ORIENTED_EDGE ( 'NONE', *, *, #74, .T. ) ;
#66 = CALENDAR_DATE ( 2020, 27, 7 ) ;
#67 = VERTEX_POINT ( 'NONE', #27 ) ;
#68 = SECURITY_CLASSIFICATION_LEVEL ( 'unclassified' ) ;
#69 = PERSON_AND_ORGANIZATION ( #190, #250 ) ;
#70 = EDGE_CURVE ( 'NONE', #12, #97, #209, .T. ) ;
#71 = CALENDAR_DATE ( 2020, 27, 7 ) ;
#72 = MECHANICAL_CONTEXT ( 'NONE', #148, 'mechanical' ) ;
#73 = ADVANCED_FACE ( 'NONE', ( #81 ), #41, .F. ) ;
#74 = EDGE_CURVE ( 'NONE', #184, #14, #186, .T. ) ;
#75 = AXIS2_PLACEMENT_3D ( 'NONE', #204, #60, #78 ) ;
#76 = LOCAL_TIME ( 8, 43, 5.000000000000000000, #194 ) ;
#77 = APPROVAL ( #127, 'UNSPECIFIED' ) ;
#78 = DIRECTION ( 'NONE',  ( 0.0000000000000000000, 0.0000000000000000000, 1.000000000000000000 ) ) ;
#79 = CC_DESIGN_APPROVAL ( #77, ( #178 ) ) ;
#80 = FACE_OUTER_BOUND ( 'NONE', #247, .T. ) ;
#81 = FACE_OUTER_BOUND ( 'NONE', #167, .T. ) ;
#82 = DIRECTION ( 'NONE',  ( -0.0000000000000000000, 1.000000000000000000, -0.0000000000000000000 ) ) ;
#83 = ORIENTED_EDGE ( 'NONE', *, *, #117, .F. ) ;
#84 = PRODUCT_RELATED_PRODUCT_CATEGORY ( 'detail', '', ( #152 ) ) ;
#85 = ORIENTED_EDGE ( 'NONE', *, *, #137, .T. ) ;
#86 = PERSON_AND_ORGANIZATION ( #190, #250 ) ;
#87 = EDGE_LOOP ( 'NONE', ( #249, #95, #85, #197 ) ) ;
#88 = COORDINATED_UNIVERSAL_TIME_OFFSET ( 5, 0, .BEHIND. ) ;
#89 = PERSON_AND_ORGANIZATION_ROLE ( 'design_owner' ) ;
#90 = EDGE_CURVE ( 'NONE', #31, #18, #130, .T. ) ;
#91 = PERSON_AND_ORGANIZATION_ROLE ( 'creator' ) ;
#92 = VECTOR ( 'NONE', #57, 39.37007874015748143 ) ;
#93 = AXIS2_PLACEMENT_3D ( 'NONE', #154, #219, #191 ) ;
#94 = APPROVAL_PERSON_ORGANIZATION ( #111, #205, #149 ) ;
#95 = ORIENTED_EDGE ( 'NONE', *, *, #32, .F. ) ;
#96 = ADVANCED_FACE ( 'NONE', ( #109 ), #193, .T. ) ;
#97 = VERTEX_POINT ( 'NONE', #162 ) ;
#98 = CARTESIAN_POINT ( 'NONE',  ( 0.0000000000000000000, 0.2500000000000000000, 0.0000000000000000000 ) ) ;
#99 = ORIENTED_EDGE ( 'NONE', *, *, #70, .F. ) ;
#100 = LOCAL_TIME ( 8, 43, 5.000000000000000000, #88 ) ;
#101 = CARTESIAN_POINT ( 'NONE',  ( 8.419446744138052529E-17, 0.2500000000000000000, 0.6875000000000000000 ) ) ;
#102 = APPROVAL ( #45, 'UNSPECIFIED' ) ;
#103 = ORIENTED_EDGE ( 'NONE', *, *, #117, .T. ) ;
#104 = DIRECTION ( 'NONE',  ( 0.0000000000000000000, 0.0000000000000000000, 1.000000000000000000 ) ) ;
#105 = PERSON_AND_ORGANIZATION_ROLE ( 'design_supplier' ) ;
#106 = CARTESIAN_POINT ( 'NONE',  ( 0.0000000000000000000, 0.2500000000000000000, 0.0000000000000000000 ) ) ;
#107 = AXIS2_PLACEMENT_3D ( 'NONE', #208, #244, #59 ) ;
#108 = SHAPE_DEFINITION_REPRESENTATION ( #196, #4 ) ;
#109 = FACE_OUTER_BOUND ( 'NONE', #150, .T. ) ;
#110 = PERSON_AND_ORGANIZATION ( #190, #250 ) ;
#111 = PERSON_AND_ORGANIZATION ( #190, #250 ) ;
#112 = AXIS2_PLACEMENT_3D ( 'NONE', #143, #145, #210 ) ;
#113 = EDGE_CURVE ( 'NONE', #31, #184, #50, .T. ) ;
#114 = ORIENTED_EDGE ( 'NONE', *, *, #169, .F. ) ;
#115 = AXIS2_PLACEMENT_3D ( 'NONE', #24, #226, #55 ) ;
#116 =( NAMED_UNIT ( * ) PLANE_ANGLE_UNIT ( ) SI_UNIT ( $, .RADIAN. ) );
#117 = EDGE_CURVE ( 'NONE', #14, #18, #136, .T. ) ;
#118 = APPLICATION_PROTOCOL_DEFINITION ( 'international standard', 'config_control_design', 1994, #148 ) ;
#119 = LINE ( 'NONE', #242, #92 ) ;
#120 = ORIENTED_EDGE ( 'NONE', *, *, #90, .F. ) ;
#121 = DIMENSIONAL_EXPONENTS ( 1.000000000000000000, 0.0000000000000000000, 0.0000000000000000000, 0.0000000000000000000, 0.0000000000000000000, 0.0000000000000000000, 0.0000000000000000000 ) ;
#122 = EDGE_CURVE ( 'NONE', #67, #43, #174, .T. ) ;
#123 = DIRECTION ( 'NONE',  ( 0.0000000000000000000, -0.0000000000000000000, 1.000000000000000000 ) ) ;
#124 = CARTESIAN_POINT ( 'NONE',  ( 0.0000000000000000000, 0.0000000000000000000, -0.6875000000000000000 ) ) ;
#125 = FACE_OUTER_BOUND ( 'NONE', #87, .T. ) ;
#126 = ORIENTED_EDGE ( 'NONE', *, *, #169, .T. ) ;
#127 = APPROVAL_STATUS ( 'not_yet_approved' ) ;
#128 = PLANE ( 'NONE',  #195 ) ;
#129 = DATE_AND_TIME ( #47, #17 ) ;
#130 = LINE ( 'NONE', #35, #39 ) ;
#131 = CIRCLE ( 'NONE', #23, 0.1250000000000000000 ) ;
#132 = CALENDAR_DATE ( 2020, 27, 7 ) ;
#133 = APPROVAL_ROLE ( '' ) ;
#134 = CC_DESIGN_PERSON_AND_ORGANIZATION_ASSIGNMENT ( #166, #235, ( #211 ) ) ;
#135 = APPROVAL_PERSON_ORGANIZATION ( #110, #102, #133 ) ;
#136 = CIRCLE ( 'NONE', #240, 0.1250000000000000000 ) ;
#137 = EDGE_CURVE ( 'NONE', #43, #12, #119, .T. ) ;
#138 = DIRECTION ( 'NONE',  ( 0.0000000000000000000, 0.0000000000000000000, -1.000000000000000000 ) ) ;
#139 = CLOSED_SHELL ( 'NONE', ( #221, #96, #176, #51, #246, #73 ) ) ;
#140 = DIRECTION ( 'NONE',  ( 0.0000000000000000000, 0.0000000000000000000, 1.000000000000000000 ) ) ;
#141 = ORIENTED_EDGE ( 'NONE', *, *, #189, .T. ) ;
#142 = DIRECTION ( 'NONE',  ( 0.0000000000000000000, 1.000000000000000000, 0.0000000000000000000 ) ) ;
#143 = CARTESIAN_POINT ( 'NONE',  ( 0.0000000000000000000, 0.0000000000000000000, 0.0000000000000000000 ) ) ;
#144 =( CONVERSION_BASED_UNIT ( 'INCH', #61 ) LENGTH_UNIT ( ) NAMED_UNIT ( #121 ) );
#145 = DIRECTION ( 'NONE',  ( -0.0000000000000000000, 1.000000000000000000, -0.0000000000000000000 ) ) ;
#146 = PLANE ( 'NONE',  #179 ) ;
#147 = ORIENTED_EDGE ( 'NONE', *, *, #224, .T. ) ;
#148 = APPLICATION_CONTEXT ( 'configuration controlled 3d designs of mechanical parts and assemblies' ) ;
#149 = APPROVAL_ROLE ( '' ) ;
#150 = EDGE_LOOP ( 'NONE', ( #230, #141, #147, #164 ) ) ;
#151 = DATE_TIME_ROLE ( 'classification_date' ) ;
#152 = PRODUCT ( 'G22', 'G22', '', ( #72 ) ) ;
#153 = CC_DESIGN_DATE_AND_TIME_ASSIGNMENT ( #155, #168, ( #178 ) ) ;
#154 = CARTESIAN_POINT ( 'NONE',  ( 0.0000000000000000000, 0.0000000000000000000, 0.0000000000000000000 ) ) ;
#155 = DATE_AND_TIME ( #71, #100 ) ;
#156 = CC_DESIGN_SECURITY_CLASSIFICATION ( #211, ( #218 ) ) ;
#157 = CIRCLE ( 'NONE', #6, 0.6875000000000000000 ) ;
#158 = DIRECTION ( 'NONE',  ( -0.0000000000000000000, -1.000000000000000000, -0.0000000000000000000 ) ) ;
#159 = ORIENTED_EDGE ( 'NONE', *, *, #53, .T. ) ;
#160 = CARTESIAN_POINT ( 'NONE',  ( 0.0000000000000000000, 0.2500000000000000000, 0.0000000000000000000 ) ) ;
#161 = CARTESIAN_POINT ( 'NONE',  ( 1.530808498934191509E-17, 0.2500000000000000000, -0.1250000000000000000 ) ) ;
#162 = CARTESIAN_POINT ( 'NONE',  ( 8.419446744138052529E-17, 0.0000000000000000000, 0.6875000000000000000 ) ) ;
#163 = DIRECTION ( 'NONE',  ( 0.0000000000000000000, 1.000000000000000000, 0.0000000000000000000 ) ) ;
#164 = ORIENTED_EDGE ( 'NONE', *, *, #137, .F. ) ;
#165 = VECTOR ( 'NONE', #216, 39.37007874015748143 ) ;
#166 = PERSON_AND_ORGANIZATION ( #190, #250 ) ;
#167 = EDGE_LOOP ( 'NONE', ( #10, #58, #30, #126 ) ) ;
#168 = DATE_TIME_ROLE ( 'creation_date' ) ;
#169 = EDGE_CURVE ( 'NONE', #18, #14, #131, .T. ) ;
#170 = AXIS2_PLACEMENT_3D ( 'NONE', #212, #62, #104 ) ;
#171 = PERSON_AND_ORGANIZATION ( #190, #250 ) ;
#172 = UNCERTAINTY_MEASURE_WITH_UNIT (LENGTH_MEASURE( 1.000000000000000082E-05 ), #144, 'distance_accuracy_value', 'NONE');
#173 = APPROVAL_DATE_TIME ( #129, #205 ) ;
#174 = CIRCLE ( 'NONE', #217, 0.6875000000000000000 ) ;
#175 = CC_DESIGN_APPROVAL ( #205, ( #211 ) ) ;
#176 = ADVANCED_FACE ( 'NONE', ( #125 ), #180, .T. ) ;
#177 = EDGE_LOOP ( 'NONE', ( #114, #83 ) ) ;
#178 = PRODUCT_DEFINITION ( 'UNKNOWN', '', #218, #2 ) ;
#179 = AXIS2_PLACEMENT_3D ( 'NONE', #26, #13, #123 ) ;
#180 = CYLINDRICAL_SURFACE ( 'NONE', #115, 0.6875000000000000000 ) ;
#181 = CARTESIAN_POINT ( 'NONE',  ( 0.0000000000000000000, 0.2500000000000000000, 0.0000000000000000000 ) ) ;
#182 = CARTESIAN_POINT ( 'NONE',  ( 0.0000000000000000000, 0.2500000000000000000, 0.1250000000000000000 ) ) ;
#183 =( LENGTH_UNIT ( ) NAMED_UNIT ( * ) SI_UNIT ( $, .METRE. ) );
#184 = VERTEX_POINT ( 'NONE', #239 ) ;
#185 = LINE ( 'NONE', #101, #237 ) ;
#186 = LINE ( 'NONE', #44, #165 ) ;
#187 =( NAMED_UNIT ( * ) SI_UNIT ( $, .STERADIAN. ) SOLID_ANGLE_UNIT ( ) );
#188 = ORIENTED_EDGE ( 'NONE', *, *, #122, .T. ) ;
#189 = EDGE_CURVE ( 'NONE', #67, #97, #185, .T. ) ;
#190 = PERSON ( 'UNSPECIFIED', 'UNSPECIFIED', 'UNSPECIFIED', ('UNSPECIFIED'), ('UNSPECIFIED'), ('UNSPECIFIED') ) ;
#191 = DIRECTION ( 'NONE',  ( 1.000000000000000000, 0.0000000000000000000, 0.0000000000000000000 ) ) ;
#192 = EDGE_LOOP ( 'NONE', ( #99, #28 ) ) ;
#193 = CYLINDRICAL_SURFACE ( 'NONE', #56, 0.6875000000000000000 ) ;
#194 = COORDINATED_UNIVERSAL_TIME_OFFSET ( 5, 0, .BEHIND. ) ;
#195 = AXIS2_PLACEMENT_3D ( 'NONE', #106, #163, #245 ) ;
#196 = PRODUCT_DEFINITION_SHAPE ( 'NONE', 'NONE',  #178 ) ;
#197 = ORIENTED_EDGE ( 'NONE', *, *, #70, .T. ) ;
#198 = CC_DESIGN_PERSON_AND_ORGANIZATION_ASSIGNMENT ( #69, #233, ( #178 ) ) ;
#199 = AXIS2_PLACEMENT_3D ( 'NONE', #252, #48, #227 ) ;
#200 = DIRECTION ( 'NONE',  ( 0.0000000000000000000, 1.000000000000000000, 0.0000000000000000000 ) ) ;
#201 = MANIFOLD_SOLID_BREP ( 'Cut-Extrude1', #139 ) ;
#202 = APPLICATION_CONTEXT ( 'configuration controlled 3d designs of mechanical parts and assemblies' ) ;
#203 = CYLINDRICAL_SURFACE ( 'NONE', #229, 0.1250000000000000000 ) ;
#204 = CARTESIAN_POINT ( 'NONE',  ( 0.0000000000000000000, 0.0000000000000000000, 0.0000000000000000000 ) ) ;
#205 = APPROVAL ( #33, 'UNSPECIFIED' ) ;
#206 = CARTESIAN_POINT ( 'NONE',  ( 0.0000000000000000000, 0.0000000000000000000, 0.0000000000000000000 ) ) ;
#207 = CARTESIAN_POINT ( 'NONE',  ( 0.0000000000000000000, 0.2500000000000000000, -0.6875000000000000000 ) ) ;
#208 = CARTESIAN_POINT ( 'NONE',  ( 0.0000000000000000000, 0.0000000000000000000, 0.0000000000000000000 ) ) ;
#209 = CIRCLE ( 'NONE', #170, 0.6875000000000000000 ) ;
#210 = DIRECTION ( 'NONE',  ( 0.0000000000000000000, 0.0000000000000000000, 1.000000000000000000 ) ) ;
#211 = SECURITY_CLASSIFICATION ( '', '', #68 ) ;
#212 = CARTESIAN_POINT ( 'NONE',  ( 0.0000000000000000000, 0.0000000000000000000, 0.0000000000000000000 ) ) ;
#213 = APPROVAL_DATE_TIME ( #36, #77 ) ;
#214 = ORIENTED_EDGE ( 'NONE', *, *, #53, .F. ) ;
#215 = APPLICATION_PROTOCOL_DEFINITION ( 'international standard', 'config_control_design', 1994, #202 ) ;
#216 = DIRECTION ( 'NONE',  ( -0.0000000000000000000, 1.000000000000000000, -0.0000000000000000000 ) ) ;
#217 = AXIS2_PLACEMENT_3D ( 'NONE', #98, #200, #248 ) ;
#218 = PRODUCT_DEFINITION_FORMATION_WITH_SPECIFIED_SOURCE ( 'ANY', '', #152, .NOT_KNOWN. ) ;
#219 = DIRECTION ( 'NONE',  ( 0.0000000000000000000, 0.0000000000000000000, 1.000000000000000000 ) ) ;
#220 = DATE_AND_TIME ( #132, #236 ) ;
#221 = ADVANCED_FACE ( 'NONE', ( #80 ), #203, .F. ) ;
#222 = CIRCLE ( 'NONE', #199, 0.6875000000000000000 ) ;
#223 = FACE_OUTER_BOUND ( 'NONE', #192, .T. ) ;
#224 = EDGE_CURVE ( 'NONE', #97, #12, #157, .T. ) ;
#225 = FACE_BOUND ( 'NONE', #177, .T. ) ;
#226 = DIRECTION ( 'NONE',  ( -0.0000000000000000000, -1.000000000000000000, -0.0000000000000000000 ) ) ;
#227 = DIRECTION ( 'NONE',  ( 0.0000000000000000000, 0.0000000000000000000, 1.000000000000000000 ) ) ;
#228 = DIRECTION ( 'NONE',  ( -0.0000000000000000000, -1.000000000000000000, -0.0000000000000000000 ) ) ;
#229 = AXIS2_PLACEMENT_3D ( 'NONE', #206, #82, #140 ) ;
#230 = ORIENTED_EDGE ( 'NONE', *, *, #122, .F. ) ;
#231 = FACE_BOUND ( 'NONE', #243, .T. ) ;
#232 = CARTESIAN_POINT ( 'NONE',  ( 0.0000000000000000000, 0.0000000000000000000, 0.1250000000000000000 ) ) ;
#233 = PERSON_AND_ORGANIZATION_ROLE ( 'creator' ) ;
#234 = ORIENTED_EDGE ( 'NONE', *, *, #32, .T. ) ;
#235 = PERSON_AND_ORGANIZATION_ROLE ( 'classification_officer' ) ;
#236 = LOCAL_TIME ( 8, 43, 5.000000000000000000, #52 ) ;
#237 = VECTOR ( 'NONE', #228, 39.37007874015748143 ) ;
#238 = CC_DESIGN_APPROVAL ( #102, ( #218 ) ) ;
#239 = CARTESIAN_POINT ( 'NONE',  ( 1.530808498934191509E-17, 0.0000000000000000000, -0.1250000000000000000 ) ) ;
#240 = AXIS2_PLACEMENT_3D ( 'NONE', #160, #29, #11 ) ;
#241 =( GEOMETRIC_REPRESENTATION_CONTEXT ( 3 ) GLOBAL_UNCERTAINTY_ASSIGNED_CONTEXT ( ( #172 ) ) GLOBAL_UNIT_ASSIGNED_CONTEXT ( ( #144, #116, #187 ) ) REPRESENTATION_CONTEXT ( 'NONE', 'WORKASPACE' ) );
#242 = CARTESIAN_POINT ( 'NONE',  ( 0.0000000000000000000, 0.2500000000000000000, -0.6875000000000000000 ) ) ;
#243 = EDGE_LOOP ( 'NONE', ( #25, #159 ) ) ;
#244 = DIRECTION ( 'NONE',  ( 0.0000000000000000000, 1.000000000000000000, 0.0000000000000000000 ) ) ;
#245 = DIRECTION ( 'NONE',  ( 0.0000000000000000000, -0.0000000000000000000, 1.000000000000000000 ) ) ;
#246 = ADVANCED_FACE ( 'NONE', ( #231, #223 ), #146, .F. ) ;
#247 = EDGE_LOOP ( 'NONE', ( #214, #65, #103, #120 ) ) ;
#248 = DIRECTION ( 'NONE',  ( 0.0000000000000000000, 0.0000000000000000000, 1.000000000000000000 ) ) ;
#249 = ORIENTED_EDGE ( 'NONE', *, *, #189, .F. ) ;
#250 = ORGANIZATION ( 'UNSPECIFIED', 'UNSPECIFIED', '' ) ;
#251 = COORDINATED_UNIVERSAL_TIME_OFFSET ( 5, 0, .BEHIND. ) ;
#252 = CARTESIAN_POINT ( 'NONE',  ( 0.0000000000000000000, 0.2500000000000000000, 0.0000000000000000000 ) ) ;
ENDSEC;
END-ISO-10303-21;
