ISO-10303-21;
HEADER;
FILE_DESCRIPTION (( 'STEP AP203' ),
    '1' );
FILE_NAME ('P32A.STEP',
    '2020-07-27T12:44:12',
    ( '' ),
    ( '' ),
    'SwSTEP 2.0',
    'SolidWorks 2019',
    '' );
FILE_SCHEMA (( 'CONFIG_CONTROL_DESIGN' ));
ENDSEC;

DATA;
#1 = DIRECTION ( 'NONE',  ( 0.0000000000000000000, 1.000000000000000000, 0.0000000000000000000 ) ) ;
#2 = DATE_TIME_ROLE ( 'classification_date' ) ;
#3 = EDGE_CURVE ( 'NONE', #357, #273, #361, .T. ) ;
#4 = ORIENTED_EDGE ( 'NONE', *, *, #304, .F. ) ;
#5 = CLOSED_SHELL ( 'NONE', ( #37, #237, #148, #26, #51, #115, #157, #397, #245, #333, #258, #102 ) ) ;
#6 = DATE_AND_TIME ( #41, #149 ) ;
#7 = CIRCLE ( 'NONE', #269, 0.1880000000000000282 ) ;
#8 = PERSON ( 'UNSPECIFIED', 'UNSPECIFIED', 'UNSPECIFIED', ('UNSPECIFIED'), ('UNSPECIFIED'), ('UNSPECIFIED') ) ;
#9 = ORIENTED_EDGE ( 'NONE', *, *, #180, .T. ) ;
#10 = APPLICATION_PROTOCOL_DEFINITION ( 'international standard', 'config_control_design', 1994, #52 ) ;
#11 = LINE ( 'NONE', #145, #307 ) ;
#12 = PERSON_AND_ORGANIZATION_ROLE ( 'design_owner' ) ;
#13 = DIRECTION ( 'NONE',  ( 0.0000000000000000000, -1.000000000000000000, 0.0000000000000000000 ) ) ;
#14 = AXIS2_PLACEMENT_3D ( 'NONE', #253, #319, #384 ) ;
#15 = CC_DESIGN_PERSON_AND_ORGANIZATION_ASSIGNMENT ( #392, #101, ( #322 ) ) ;
#16 = CARTESIAN_POINT ( 'NONE',  ( 0.0000000000000000000, 0.2500000000000000000, 0.0000000000000000000 ) ) ;
#17 = VECTOR ( 'NONE', #50, 39.37007874015748143 ) ;
#18 = LINE ( 'NONE', #55, #313 ) ;
#19 = EDGE_CURVE ( 'NONE', #388, #402, #11, .T. ) ;
#20 = ORIENTED_EDGE ( 'NONE', *, *, #172, .F. ) ;
#21 = PLANE ( 'NONE',  #383 ) ;
#22 = DIRECTION ( 'NONE',  ( 0.0000000000000000000, 0.0000000000000000000, 1.000000000000000000 ) ) ;
#23 = CIRCLE ( 'NONE', #152, 0.4384529946162071257 ) ;
#24 = ORIENTED_EDGE ( 'NONE', *, *, #70, .F. ) ;
#25 = DIRECTION ( 'NONE',  ( 0.0000000000000000000, -0.0000000000000000000, 1.000000000000000000 ) ) ;
#26 = ADVANCED_FACE ( 'NONE', ( #45 ), #177, .F. ) ;
#27 = CARTESIAN_POINT ( 'NONE',  ( 0.0000000000000000000, 0.0000000000000000000, 0.0000000000000000000 ) ) ;
#28 = DIRECTION ( 'NONE',  ( 0.0000000000000000000, -0.0000000000000000000, 1.000000000000000000 ) ) ;
#29 = DIRECTION ( 'NONE',  ( 0.0000000000000000000, 0.0000000000000000000, 1.000000000000000000 ) ) ;
#30 = ORIENTED_EDGE ( 'NONE', *, *, #403, .F. ) ;
#31 = FACE_BOUND ( 'NONE', #205, .T. ) ;
#32 = CIRCLE ( 'NONE', #89, 0.1880000000000000282 ) ;
#33 = VECTOR ( 'NONE', #239, 39.37007874015748143 ) ;
#34 = ORIENTED_EDGE ( 'NONE', *, *, #3, .T. ) ;
#35 = DATE_AND_TIME ( #197, #122 ) ;
#36 = CARTESIAN_POINT ( 'NONE',  ( 0.0000000000000000000, 0.2500000000000000000, 0.0000000000000000000 ) ) ;
#37 = ADVANCED_FACE ( 'NONE', ( #259 ), #198, .T. ) ;
#38 = EDGE_LOOP ( 'NONE', ( #88, #341, #236, #208 ) ) ;
#39 = APPROVAL_ROLE ( '' ) ;
#40 = VERTEX_POINT ( 'NONE', #71 ) ;
#41 = CALENDAR_DATE ( 2020, 27, 7 ) ;
#42 = AXIS2_PLACEMENT_3D ( 'NONE', #411, #381, #81 ) ;
#43 = APPROVAL_DATE_TIME ( #35, #277 ) ;
#44 = EDGE_CURVE ( 'NONE', #357, #318, #62, .T. ) ;
#45 = FACE_OUTER_BOUND ( 'NONE', #60, .T. ) ;
#46 = COORDINATED_UNIVERSAL_TIME_OFFSET ( 5, 0, .BEHIND. ) ;
#47 = DIRECTION ( 'NONE',  ( 0.0000000000000000000, -0.8660254037844351549, -0.5000000000000059952 ) ) ;
#48 = PLANE ( 'NONE',  #169 ) ;
#49 = AXIS2_PLACEMENT_3D ( 'NONE', #147, #87, #184 ) ;
#50 = DIRECTION ( 'NONE',  ( -0.0000000000000000000, -1.000000000000000000, -0.0000000000000000000 ) ) ;
#51 = ADVANCED_FACE ( 'NONE', ( #31, #282 ), #317, .T. ) ;
#52 = APPLICATION_CONTEXT ( 'configuration controlled 3d designs of mechanical parts and assemblies' ) ;
#53 = LINE ( 'NONE', #398, #234 ) ;
#54 = FACE_BOUND ( 'NONE', #63, .T. ) ;
#55 = CARTESIAN_POINT ( 'NONE',  ( 0.0000000000000000000, 0.2500000000000000000, -1.002499999999999947 ) ) ;
#56 = ORIENTED_EDGE ( 'NONE', *, *, #86, .T. ) ;
#57 = DIRECTION ( 'NONE',  ( 0.0000000000000000000, 0.0000000000000000000, 1.000000000000000000 ) ) ;
#58 = CARTESIAN_POINT ( 'NONE',  ( 1.105351231753329328E-16, 0.2500000000000000000, -0.9025877767556473863 ) ) ;
#59 = CC_DESIGN_PERSON_AND_ORGANIZATION_ASSIGNMENT ( #327, #257, ( #295 ) ) ;
#60 = EDGE_LOOP ( 'NONE', ( #161, #138, #191, #215 ) ) ;
#61 = DIRECTION ( 'NONE',  ( -0.0000000000000000000, -1.000000000000000000, -0.0000000000000000000 ) ) ;
#62 = CIRCLE ( 'NONE', #112, 0.1880000000000000282 ) ;
#63 = EDGE_LOOP ( 'NONE', ( #136, #235 ) ) ;
#64 =( LENGTH_UNIT ( ) NAMED_UNIT ( * ) SI_UNIT ( $, .METRE. ) );
#65 = DIRECTION ( 'NONE',  ( 0.0000000000000000000, 1.000000000000000000, 0.0000000000000000000 ) ) ;
#66 = ORIENTED_EDGE ( 'NONE', *, *, #86, .F. ) ;
#67 = DIMENSIONAL_EXPONENTS ( 1.000000000000000000, 0.0000000000000000000, 0.0000000000000000000, 0.0000000000000000000, 0.0000000000000000000, 0.0000000000000000000, 0.0000000000000000000 ) ;
#68 = CARTESIAN_POINT ( 'NONE',  ( 5.369500564333097217E-17, 0.2200000000000000011, 0.4384529946162071257 ) ) ;
#69 = APPROVAL_STATUS ( 'not_yet_approved' ) ;
#70 = EDGE_CURVE ( 'NONE', #293, #203, #363, .T. ) ;
#71 = CARTESIAN_POINT ( 'NONE',  ( 0.0000000000000000000, 0.0000000000000000000, -1.002499999999999947 ) ) ;
#72 = LOCAL_TIME ( 8, 44, 12.00000000000000000, #266 ) ;
#73 = EDGE_LOOP ( 'NONE', ( #291, #385 ) ) ;
#74 = DIRECTION ( 'NONE',  ( 1.000000000000000000, 0.0000000000000000000, 0.0000000000000000000 ) ) ;
#75 = ORIENTED_EDGE ( 'NONE', *, *, #222, .T. ) ;
#76 = CC_DESIGN_PERSON_AND_ORGANIZATION_ASSIGNMENT ( #201, #178, ( #374 ) ) ;
#77 = CARTESIAN_POINT ( 'NONE',  ( 0.0000000000000000000, 0.0000000000000000000, 0.1880000000000000282 ) ) ;
#78 = PERSON_AND_ORGANIZATION ( #8, #113 ) ;
#79 = CIRCLE ( 'NONE', #141, 0.9025877767556473863 ) ;
#80 = CARTESIAN_POINT ( 'NONE',  ( 1.068611827778908197E-16, 0.1856647923847116743, -0.8725877767556469156 ) ) ;
#81 = DIRECTION ( 'NONE',  ( 0.0000000000000000000, 0.0000000000000000000, 1.000000000000000000 ) ) ;
#82 = CARTESIAN_POINT ( 'NONE',  ( 0.0000000000000000000, 0.1856647923847116743, 0.0000000000000000000 ) ) ;
#83 = DESIGN_CONTEXT ( 'detailed design', #221, 'design' ) ;
#84 = APPROVAL_PERSON_ORGANIZATION ( #78, #277, #209 ) ;
#85 = DIRECTION ( 'NONE',  ( 0.0000000000000000000, 1.000000000000000000, 0.0000000000000000000 ) ) ;
#86 = EDGE_CURVE ( 'NONE', #40, #159, #285, .T. ) ;
#87 = DIRECTION ( 'NONE',  ( -0.0000000000000000000, -1.000000000000000000, -0.0000000000000000000 ) ) ;
#88 = ORIENTED_EDGE ( 'NONE', *, *, #183, .F. ) ;
#89 = AXIS2_PLACEMENT_3D ( 'NONE', #99, #290, #407 ) ;
#90 = LOCAL_TIME ( 8, 44, 12.00000000000000000, #146 ) ;
#91 = EDGE_LOOP ( 'NONE', ( #4, #9, #348, #312 ) ) ;
#92 = DIRECTION ( 'NONE',  ( 0.0000000000000000000, 1.000000000000000000, 0.0000000000000000000 ) ) ;
#93 = CC_DESIGN_PERSON_AND_ORGANIZATION_ASSIGNMENT ( #294, #292, ( #322 ) ) ;
#94 = DIRECTION ( 'NONE',  ( 0.0000000000000000000, 1.000000000000000000, 0.0000000000000000000 ) ) ;
#95 = CARTESIAN_POINT ( 'NONE',  ( 0.0000000000000000000, 0.2500000000000000000, 0.0000000000000000000 ) ) ;
#96 = CIRCLE ( 'NONE', #111, 0.8885985470109976081 ) ;
#97 = DIRECTION ( 'NONE',  ( 0.0000000000000000000, 0.0000000000000000000, 1.000000000000000000 ) ) ;
#98 = DIRECTION ( 'NONE',  ( 0.0000000000000000000, 1.000000000000000000, 0.0000000000000000000 ) ) ;
#99 = CARTESIAN_POINT ( 'NONE',  ( 0.0000000000000000000, 0.0000000000000000000, 0.0000000000000000000 ) ) ;
#100 = ORIENTED_EDGE ( 'NONE', *, *, #44, .F. ) ;
#101 = PERSON_AND_ORGANIZATION_ROLE ( 'design_supplier' ) ;
#102 = ADVANCED_FACE ( 'NONE', ( #137 ), #337, .T. ) ;
#103 = DIRECTION ( 'NONE',  ( 0.0000000000000000000, 0.0000000000000000000, 1.000000000000000000 ) ) ;
#104 = ORIENTED_EDGE ( 'NONE', *, *, #304, .T. ) ;
#105 = PERSON_AND_ORGANIZATION ( #8, #113 ) ;
#106 = CIRCLE ( 'NONE', #395, 0.4211324865405181028 ) ;
#107 = ORIENTED_EDGE ( 'NONE', *, *, #188, .F. ) ;
#108 = APPLICATION_PROTOCOL_DEFINITION ( 'international standard', 'config_control_design', 1994, #221 ) ;
#109 = EDGE_LOOP ( 'NONE', ( #20, #283 ) ) ;
#110 = DIRECTION ( 'NONE',  ( 0.0000000000000000000, 1.000000000000000000, 0.0000000000000000000 ) ) ;
#111 = AXIS2_PLACEMENT_3D ( 'NONE', #347, #65, #29 ) ;
#112 = AXIS2_PLACEMENT_3D ( 'NONE', #160, #350, #97 ) ;
#113 = ORGANIZATION ( 'UNSPECIFIED', 'UNSPECIFIED', '' ) ;
#114 = DIRECTION ( 'NONE',  ( 0.0000000000000000000, 0.0000000000000000000, 1.000000000000000000 ) ) ;
#115 = ADVANCED_FACE ( 'NONE', ( #128 ), #249, .F. ) ;
#116 = FACE_OUTER_BOUND ( 'NONE', #38, .T. ) ;
#117 = AXIS2_PLACEMENT_3D ( 'NONE', #280, #179, #200 ) ;
#118 = CIRCLE ( 'NONE', #207, 1.002499999999999947 ) ;
#119 = CARTESIAN_POINT ( 'NONE',  ( 0.0000000000000000000, 0.2200000000000000011, -0.4384529946162071257 ) ) ;
#120 = CARTESIAN_POINT ( 'NONE',  ( 1.227708416145221399E-16, 0.2500000000000000000, 1.002499999999999947 ) ) ;
#121 = DIRECTION ( 'NONE',  ( 0.0000000000000000000, 0.0000000000000000000, 1.000000000000000000 ) ) ;
#122 = LOCAL_TIME ( 8, 44, 12.00000000000000000, #352 ) ;
#123 = DIRECTION ( 'NONE',  ( 0.0000000000000000000, 1.000000000000000000, 0.0000000000000000000 ) ) ;
#124 = ADVANCED_BREP_SHAPE_REPRESENTATION ( 'P32A', ( #409, #393 ), #175 ) ;
#125 = EDGE_CURVE ( 'NONE', #129, #254, #211, .T. ) ;
#126 = ORIENTED_EDGE ( 'NONE', *, *, #19, .F. ) ;
#127 = FACE_BOUND ( 'NONE', #109, .T. ) ;
#128 = FACE_OUTER_BOUND ( 'NONE', #154, .T. ) ;
#129 = VERTEX_POINT ( 'NONE', #323 ) ;
#130 = CARTESIAN_POINT ( 'NONE',  ( 0.0000000000000000000, 0.0000000000000000000, 0.0000000000000000000 ) ) ;
#131 = FACE_OUTER_BOUND ( 'NONE', #298, .T. ) ;
#132 = CIRCLE ( 'NONE', #365, 0.4211324865405181028 ) ;
#133 = EDGE_CURVE ( 'NONE', #388, #390, #96, .T. ) ;
#134 = CARTESIAN_POINT ( 'NONE',  ( 0.0000000000000000000, 0.2200000000000000011, 0.8885985470109976081 ) ) ;
#135 = CYLINDRICAL_SURFACE ( 'NONE', #14, 1.002499999999999947 ) ;
#136 = ORIENTED_EDGE ( 'NONE', *, *, #44, .T. ) ;
#137 = FACE_OUTER_BOUND ( 'NONE', #288, .T. ) ;
#138 = ORIENTED_EDGE ( 'NONE', *, *, #287, .T. ) ;
#139 = APPROVAL_STATUS ( 'not_yet_approved' ) ;
#140 = CC_DESIGN_DATE_AND_TIME_ASSIGNMENT ( #324, #2, ( #374 ) ) ;
#141 = AXIS2_PLACEMENT_3D ( 'NONE', #368, #372, #153 ) ;
#142 = APPROVAL_STATUS ( 'not_yet_approved' ) ;
#143 = EDGE_LOOP ( 'NONE', ( #66, #330 ) ) ;
#144 = APPROVAL_DATE_TIME ( #358, #270 ) ;
#145 = CARTESIAN_POINT ( 'NONE',  ( 0.0000000000000000000, 0.1856647923847116743, 0.8725877767556469156 ) ) ;
#146 = COORDINATED_UNIVERSAL_TIME_OFFSET ( 5, 0, .BEHIND. ) ;
#147 = CARTESIAN_POINT ( 'NONE',  ( 0.0000000000000000000, 0.2200000000000000011, 0.0000000000000000000 ) ) ;
#148 = ADVANCED_FACE ( 'NONE', ( #364 ), #194, .T. ) ;
#149 = LOCAL_TIME ( 8, 44, 12.00000000000000000, #264 ) ;
#150 = CARTESIAN_POINT ( 'NONE',  ( 1.227708416145221399E-16, 0.2500000000000000000, 1.002499999999999947 ) ) ;
#151 = EDGE_CURVE ( 'NONE', #318, #357, #32, .T. ) ;
#152 = AXIS2_PLACEMENT_3D ( 'NONE', #410, #342, #316 ) ;
#153 = DIRECTION ( 'NONE',  ( 0.0000000000000000000, 0.0000000000000000000, 1.000000000000000000 ) ) ;
#154 = EDGE_LOOP ( 'NONE', ( #405, #100, #34, #263 ) ) ;
#155 = FACE_OUTER_BOUND ( 'NONE', #246, .T. ) ;
#156 = ORIENTED_EDGE ( 'NONE', *, *, #233, .T. ) ;
#157 = ADVANCED_FACE ( 'NONE', ( #131 ), #135, .T. ) ;
#158 = CONICAL_SURFACE ( 'NONE', #182, 0.8725877767556469156, 0.4363323129985795523 ) ;
#159 = VERTEX_POINT ( 'NONE', #168 ) ;
#160 = CARTESIAN_POINT ( 'NONE',  ( 0.0000000000000000000, 0.0000000000000000000, 0.0000000000000000000 ) ) ;
#161 = ORIENTED_EDGE ( 'NONE', *, *, #151, .F. ) ;
#162 = CARTESIAN_POINT ( 'NONE',  ( 1.096785299038668170E-16, 0.2200000000000000011, -0.8885985470109976081 ) ) ;
#163 = DIRECTION ( 'NONE',  ( -0.0000000000000000000, -1.000000000000000000, -0.0000000000000000000 ) ) ;
#164 = EDGE_LOOP ( 'NONE', ( #279, #75 ) ) ;
#165 = FACE_BOUND ( 'NONE', #164, .T. ) ;
#166 = AXIS2_PLACEMENT_3D ( 'NONE', #394, #242, #286 ) ;
#167 = CIRCLE ( 'NONE', #186, 0.8885985470109976081 ) ;
#168 = CARTESIAN_POINT ( 'NONE',  ( 1.227708416145221399E-16, 0.0000000000000000000, 1.002499999999999947 ) ) ;
#169 = AXIS2_PLACEMENT_3D ( 'NONE', #181, #302, #336 ) ;
#170 = DIRECTION ( 'NONE',  ( 0.0000000000000000000, 0.0000000000000000000, -1.000000000000000000 ) ) ;
#171 = VERTEX_POINT ( 'NONE', #68 ) ;
#172 = EDGE_CURVE ( 'NONE', #273, #320, #373, .T. ) ;
#173 = CALENDAR_DATE ( 2020, 27, 7 ) ;
#174 = APPROVAL_ROLE ( '' ) ;
#175 =( GEOMETRIC_REPRESENTATION_CONTEXT ( 3 ) GLOBAL_UNCERTAINTY_ASSIGNED_CONTEXT ( ( #345 ) ) GLOBAL_UNIT_ASSIGNED_CONTEXT ( ( #193, #311, #378 ) ) REPRESENTATION_CONTEXT ( 'NONE', 'WORKASPACE' ) );
#176 = ORIENTED_EDGE ( 'NONE', *, *, #183, .T. ) ;
#177 = CYLINDRICAL_SURFACE ( 'NONE', #185, 0.1880000000000000282 ) ;
#178 = PERSON_AND_ORGANIZATION_ROLE ( 'classification_officer' ) ;
#179 = DIRECTION ( 'NONE',  ( 0.0000000000000000000, 1.000000000000000000, 0.0000000000000000000 ) ) ;
#180 = EDGE_CURVE ( 'NONE', #315, #171, #230, .T. ) ;
#181 = CARTESIAN_POINT ( 'NONE',  ( 0.0000000000000000000, 0.0000000000000000000, 0.0000000000000000000 ) ) ;
#182 = AXIS2_PLACEMENT_3D ( 'NONE', #335, #272, #396 ) ;
#183 = EDGE_CURVE ( 'NONE', #390, #391, #301, .T. ) ;
#184 = DIRECTION ( 'NONE',  ( 0.0000000000000000000, 0.0000000000000000000, 1.000000000000000000 ) ) ;
#185 = AXIS2_PLACEMENT_3D ( 'NONE', #27, #196, #389 ) ;
#186 = AXIS2_PLACEMENT_3D ( 'NONE', #340, #220, #22 ) ;
#187 = CARTESIAN_POINT ( 'NONE',  ( 0.0000000000000000000, 0.2500000000000000000, 0.0000000000000000000 ) ) ;
#188 = EDGE_CURVE ( 'NONE', #171, #254, #329, .T. ) ;
#189 = FACE_OUTER_BOUND ( 'NONE', #260, .T. ) ;
#190 = ORIENTED_EDGE ( 'NONE', *, *, #218, .F. ) ;
#191 = ORIENTED_EDGE ( 'NONE', *, *, #356, .T. ) ;
#192 = PRODUCT_DEFINITION_SHAPE ( 'NONE', 'NONE',  #295 ) ;
#193 =( CONVERSION_BASED_UNIT ( 'INCH', #251 ) LENGTH_UNIT ( ) NAMED_UNIT ( #67 ) );
#194 = CYLINDRICAL_SURFACE ( 'NONE', #268, 1.002499999999999947 ) ;
#195 = CARTESIAN_POINT ( 'NONE',  ( 0.0000000000000000000, 0.2500000000000000000, 0.9025877767556473863 ) ) ;
#196 = DIRECTION ( 'NONE',  ( -0.0000000000000000000, 1.000000000000000000, -0.0000000000000000000 ) ) ;
#197 = CALENDAR_DATE ( 2020, 27, 7 ) ;
#198 = CONICAL_SURFACE ( 'NONE', #296, 0.4211324865405181028, 0.5235987755983058101 ) ;
#199 = APPROVAL_PERSON_ORGANIZATION ( #105, #382, #174 ) ;
#200 = DIRECTION ( 'NONE',  ( 0.0000000000000000000, -0.0000000000000000000, 1.000000000000000000 ) ) ;
#201 = PERSON_AND_ORGANIZATION ( #8, #113 ) ;
#202 = CC_DESIGN_DATE_AND_TIME_ASSIGNMENT ( #229, #206, ( #295 ) ) ;
#203 = VERTEX_POINT ( 'NONE', #150 ) ;
#204 = DIRECTION ( 'NONE',  ( 0.0000000000000000000, 0.0000000000000000000, 1.000000000000000000 ) ) ;
#205 = EDGE_LOOP ( 'NONE', ( #244, #371 ) ) ;
#206 = DATE_TIME_ROLE ( 'creation_date' ) ;
#207 = AXIS2_PLACEMENT_3D ( 'NONE', #130, #217, #380 ) ;
#208 = ORIENTED_EDGE ( 'NONE', *, *, #222, .F. ) ;
#209 = APPROVAL_ROLE ( '' ) ;
#210 = DIRECTION ( 'NONE',  ( 5.175581015019625498E-17, 0.9063077870366512689, -0.4226182617406967768 ) ) ;
#211 = LINE ( 'NONE', #225, #224 ) ;
#212 = PRODUCT_RELATED_PRODUCT_CATEGORY ( 'detail', '', ( #278 ) ) ;
#213 = CARTESIAN_POINT ( 'NONE',  ( 0.0000000000000000000, 0.2500000000000000000, -1.002499999999999947 ) ) ;
#214 = DIRECTION ( 'NONE',  ( -0.0000000000000000000, -1.000000000000000000, -0.0000000000000000000 ) ) ;
#215 = ORIENTED_EDGE ( 'NONE', *, *, #3, .F. ) ;
#216 = APPROVAL_PERSON_ORGANIZATION ( #354, #270, #39 ) ;
#217 = DIRECTION ( 'NONE',  ( 0.0000000000000000000, 1.000000000000000000, 0.0000000000000000000 ) ) ;
#218 = EDGE_CURVE ( 'NONE', #293, #40, #18, .T. ) ;
#219 = ORIENTED_EDGE ( 'NONE', *, *, #366, .T. ) ;
#220 = DIRECTION ( 'NONE',  ( 0.0000000000000000000, 1.000000000000000000, 0.0000000000000000000 ) ) ;
#221 = APPLICATION_CONTEXT ( 'configuration controlled 3d designs of mechanical parts and assemblies' ) ;
#222 = EDGE_CURVE ( 'NONE', #391, #402, #79, .T. ) ;
#223 = CARTESIAN_POINT ( 'NONE',  ( 0.0000000000000000000, 0.2500000000000000000, 0.0000000000000000000 ) ) ;
#224 = VECTOR ( 'NONE', #47, 39.37007874015748143 ) ;
#225 = CARTESIAN_POINT ( 'NONE',  ( 0.0000000000000000000, 0.2500000000000000000, -0.4211324865405181028 ) ) ;
#226 = DIRECTION ( 'NONE',  ( 0.0000000000000000000, 0.0000000000000000000, 1.000000000000000000 ) ) ;
#227 = DIRECTION ( 'NONE',  ( 0.0000000000000000000, 0.0000000000000000000, -1.000000000000000000 ) ) ;
#228 = ORIENTED_EDGE ( 'NONE', *, *, #233, .F. ) ;
#229 = DATE_AND_TIME ( #232, #72 ) ;
#230 = LINE ( 'NONE', #353, #33 ) ;
#231 = EDGE_LOOP ( 'NONE', ( #375, #176, #256, #126 ) ) ;
#232 = CALENDAR_DATE ( 2020, 27, 7 ) ;
#233 = EDGE_CURVE ( 'NONE', #203, #159, #332, .T. ) ;
#234 = VECTOR ( 'NONE', #243, 39.37007874015748143 ) ;
#235 = ORIENTED_EDGE ( 'NONE', *, *, #151, .T. ) ;
#236 = ORIENTED_EDGE ( 'NONE', *, *, #19, .T. ) ;
#237 = ADVANCED_FACE ( 'NONE', ( #370 ), #158, .F. ) ;
#238 = CARTESIAN_POINT ( 'NONE',  ( 0.0000000000000000000, 0.0000000000000000000, 0.0000000000000000000 ) ) ;
#239 = DIRECTION ( 'NONE',  ( 6.123233995736839992E-17, -0.8660254037844351549, 0.5000000000000059952 ) ) ;
#240 = AXIS2_PLACEMENT_3D ( 'NONE', #367, #110, #114 ) ;
#241 = CIRCLE ( 'NONE', #297, 1.002499999999999947 ) ;
#242 = DIRECTION ( 'NONE',  ( 0.0000000000000000000, -1.000000000000000000, 0.0000000000000000000 ) ) ;
#243 = DIRECTION ( 'NONE',  ( -0.0000000000000000000, 1.000000000000000000, -0.0000000000000000000 ) ) ;
#244 = ORIENTED_EDGE ( 'NONE', *, *, #377, .T. ) ;
#245 = ADVANCED_FACE ( 'NONE', ( #54, #305 ), #48, .F. ) ;
#246 = EDGE_LOOP ( 'NONE', ( #379, #104 ) ) ;
#247 = CC_DESIGN_APPROVAL ( #382, ( #322 ) ) ;
#248 = DIRECTION ( 'NONE',  ( 0.0000000000000000000, 0.0000000000000000000, 1.000000000000000000 ) ) ;
#249 = CYLINDRICAL_SURFACE ( 'NONE', #42, 0.1880000000000000282 ) ;
#250 = EDGE_LOOP ( 'NONE', ( #30, #156, #219, #190 ) ) ;
#251 = LENGTH_MEASURE_WITH_UNIT ( LENGTH_MEASURE( 0.02539999999999999897 ), #64 );
#252 = AXIS2_PLACEMENT_3D ( 'NONE', #223, #61, #226 ) ;
#253 = CARTESIAN_POINT ( 'NONE',  ( 0.0000000000000000000, 0.2500000000000000000, 0.0000000000000000000 ) ) ;
#254 = VERTEX_POINT ( 'NONE', #119 ) ;
#255 = CARTESIAN_POINT ( 'NONE',  ( 0.0000000000000000000, 0.2500000000000000000, 0.0000000000000000000 ) ) ;
#256 = ORIENTED_EDGE ( 'NONE', *, *, #399, .F. ) ;
#257 = PERSON_AND_ORGANIZATION_ROLE ( 'creator' ) ;
#258 = ADVANCED_FACE ( 'NONE', ( #116 ), #408, .F. ) ;
#259 = FACE_OUTER_BOUND ( 'NONE', #91, .T. ) ;
#260 = EDGE_LOOP ( 'NONE', ( #309, #412 ) ) ;
#261 = CC_DESIGN_APPROVAL ( #270, ( #295 ) ) ;
#262 = SECURITY_CLASSIFICATION_LEVEL ( 'unclassified' ) ;
#263 = ORIENTED_EDGE ( 'NONE', *, *, #172, .T. ) ;
#264 = COORDINATED_UNIVERSAL_TIME_OFFSET ( 5, 0, .BEHIND. ) ;
#265 = DIRECTION ( 'NONE',  ( 0.0000000000000000000, 0.9063077870366512689, 0.4226182617406967768 ) ) ;
#266 = COORDINATED_UNIVERSAL_TIME_OFFSET ( 5, 0, .BEHIND. ) ;
#267 = CARTESIAN_POINT ( 'NONE',  ( 0.0000000000000000000, 0.2500000000000000000, 0.0000000000000000000 ) ) ;
#268 = AXIS2_PLACEMENT_3D ( 'NONE', #36, #163, #170 ) ;
#269 = AXIS2_PLACEMENT_3D ( 'NONE', #187, #123, #57 ) ;
#270 = APPROVAL ( #69, 'UNSPECIFIED' ) ;
#271 = DIRECTION ( 'NONE',  ( 0.0000000000000000000, 0.0000000000000000000, 1.000000000000000000 ) ) ;
#272 = DIRECTION ( 'NONE',  ( 0.0000000000000000000, 1.000000000000000000, 0.0000000000000000000 ) ) ;
#273 = VERTEX_POINT ( 'NONE', #306 ) ;
#274 = DIRECTION ( 'NONE',  ( 0.0000000000000000000, 0.0000000000000000000, 1.000000000000000000 ) ) ;
#275 = VECTOR ( 'NONE', #210, 39.37007874015748143 ) ;
#276 = DIRECTION ( 'NONE',  ( 0.0000000000000000000, 1.000000000000000000, 0.0000000000000000000 ) ) ;
#277 = APPROVAL ( #139, 'UNSPECIFIED' ) ;
#278 = PRODUCT ( 'P32A', 'P32A', '', ( #360 ) ) ;
#279 = ORIENTED_EDGE ( 'NONE', *, *, #399, .T. ) ;
#280 = CARTESIAN_POINT ( 'NONE',  ( 0.0000000000000000000, 0.2200000000000000011, 0.0000000000000000000 ) ) ;
#281 = CARTESIAN_POINT ( 'NONE',  ( 0.0000000000000000000, 0.2500000000000000000, 0.0000000000000000000 ) ) ;
#282 = FACE_OUTER_BOUND ( 'NONE', #73, .T. ) ;
#283 = ORIENTED_EDGE ( 'NONE', *, *, #356, .F. ) ;
#284 = PLANE ( 'NONE',  #334 ) ;
#285 = CIRCLE ( 'NONE', #338, 1.002499999999999947 ) ;
#286 = DIRECTION ( 'NONE',  ( 0.0000000000000000000, 0.0000000000000000000, -1.000000000000000000 ) ) ;
#287 = EDGE_CURVE ( 'NONE', #318, #320, #53, .T. ) ;
#288 = EDGE_LOOP ( 'NONE', ( #325, #359, #351, #107 ) ) ;
#289 = SHAPE_DEFINITION_REPRESENTATION ( #192, #124 ) ;
#290 = DIRECTION ( 'NONE',  ( 0.0000000000000000000, 1.000000000000000000, 0.0000000000000000000 ) ) ;
#291 = ORIENTED_EDGE ( 'NONE', *, *, #133, .T. ) ;
#292 = PERSON_AND_ORGANIZATION_ROLE ( 'creator' ) ;
#293 = VERTEX_POINT ( 'NONE', #213 ) ;
#294 = PERSON_AND_ORGANIZATION ( #8, #113 ) ;
#295 = PRODUCT_DEFINITION ( 'UNKNOWN', '', #322, #83 ) ;
#296 = AXIS2_PLACEMENT_3D ( 'NONE', #267, #13, #227 ) ;
#297 = AXIS2_PLACEMENT_3D ( 'NONE', #95, #406, #274 ) ;
#298 = EDGE_LOOP ( 'NONE', ( #228, #24, #346, #56 ) ) ;
#299 = DIRECTION ( 'NONE',  ( -0.0000000000000000000, 1.000000000000000000, -0.0000000000000000000 ) ) ;
#300 = PERSON_AND_ORGANIZATION ( #8, #113 ) ;
#301 = LINE ( 'NONE', #80, #275 ) ;
#302 = DIRECTION ( 'NONE',  ( 0.0000000000000000000, 1.000000000000000000, 0.0000000000000000000 ) ) ;
#303 = LOCAL_TIME ( 8, 44, 12.00000000000000000, #46 ) ;
#304 = EDGE_CURVE ( 'NONE', #315, #129, #106, .T. ) ;
#305 = FACE_OUTER_BOUND ( 'NONE', #143, .T. ) ;
#306 = CARTESIAN_POINT ( 'NONE',  ( 0.0000000000000000000, 0.2500000000000000000, 0.1880000000000000282 ) ) ;
#307 = VECTOR ( 'NONE', #265, 39.37007874015748143 ) ;
#308 = AXIS2_PLACEMENT_3D ( 'NONE', #82, #85, #271 ) ;
#309 = ORIENTED_EDGE ( 'NONE', *, *, #70, .T. ) ;
#310 = CARTESIAN_POINT ( 'NONE',  ( 0.0000000000000000000, 0.0000000000000000000, 0.1880000000000000282 ) ) ;
#311 =( NAMED_UNIT ( * ) PLANE_ANGLE_UNIT ( ) SI_UNIT ( $, .RADIAN. ) );
#312 = ORIENTED_EDGE ( 'NONE', *, *, #125, .F. ) ;
#313 = VECTOR ( 'NONE', #214, 39.37007874015748143 ) ;
#314 = CARTESIAN_POINT ( 'NONE',  ( 0.0000000000000000000, 0.2500000000000000000, 0.0000000000000000000 ) ) ;
#315 = VERTEX_POINT ( 'NONE', #376 ) ;
#316 = DIRECTION ( 'NONE',  ( 0.0000000000000000000, 0.0000000000000000000, 1.000000000000000000 ) ) ;
#317 = PLANE ( 'NONE',  #117 ) ;
#318 = VERTEX_POINT ( 'NONE', #386 ) ;
#319 = DIRECTION ( 'NONE',  ( -0.0000000000000000000, -1.000000000000000000, -0.0000000000000000000 ) ) ;
#320 = VERTEX_POINT ( 'NONE', #344 ) ;
#321 = APPROVAL_DATE_TIME ( #6, #382 ) ;
#322 = PRODUCT_DEFINITION_FORMATION_WITH_SPECIFIED_SOURCE ( 'ANY', '', #278, .NOT_KNOWN. ) ;
#323 = CARTESIAN_POINT ( 'NONE',  ( 0.0000000000000000000, 0.2500000000000000000, -0.4211324865405181028 ) ) ;
#324 = DATE_AND_TIME ( #362, #303 ) ;
#325 = ORIENTED_EDGE ( 'NONE', *, *, #180, .F. ) ;
#326 = CC_DESIGN_PERSON_AND_ORGANIZATION_ASSIGNMENT ( #300, #12, ( #278 ) ) ;
#327 = PERSON_AND_ORGANIZATION ( #8, #113 ) ;
#328 = VECTOR ( 'NONE', #299, 39.37007874015748143 ) ;
#329 = CIRCLE ( 'NONE', #49, 0.4384529946162071257 ) ;
#330 = ORIENTED_EDGE ( 'NONE', *, *, #366, .F. ) ;
#331 = CARTESIAN_POINT ( 'NONE',  ( 0.0000000000000000000, 0.0000000000000000000, 0.0000000000000000000 ) ) ;
#332 = LINE ( 'NONE', #120, #17 ) ;
#333 = ADVANCED_FACE ( 'NONE', ( #155, #127 ), #284, .T. ) ;
#334 = AXIS2_PLACEMENT_3D ( 'NONE', #401, #92, #28 ) ;
#335 = CARTESIAN_POINT ( 'NONE',  ( 0.0000000000000000000, 0.1856647923847116743, 0.0000000000000000000 ) ) ;
#336 = DIRECTION ( 'NONE',  ( 0.0000000000000000000, -0.0000000000000000000, 1.000000000000000000 ) ) ;
#337 = CONICAL_SURFACE ( 'NONE', #166, 0.4211324865405181028, 0.5235987755983058101 ) ;
#338 = AXIS2_PLACEMENT_3D ( 'NONE', #331, #1, #404 ) ;
#339 = AXIS2_PLACEMENT_3D ( 'NONE', #255, #387, #103 ) ;
#340 = CARTESIAN_POINT ( 'NONE',  ( 0.0000000000000000000, 0.2200000000000000011, 0.0000000000000000000 ) ) ;
#341 = ORIENTED_EDGE ( 'NONE', *, *, #133, .F. ) ;
#342 = DIRECTION ( 'NONE',  ( -0.0000000000000000000, -1.000000000000000000, -0.0000000000000000000 ) ) ;
#343 = EDGE_CURVE ( 'NONE', #129, #315, #132, .T. ) ;
#344 = CARTESIAN_POINT ( 'NONE',  ( 2.302335982397024478E-17, 0.2500000000000000000, -0.1880000000000000282 ) ) ;
#345 = UNCERTAINTY_MEASURE_WITH_UNIT (LENGTH_MEASURE( 1.000000000000000082E-05 ), #193, 'distance_accuracy_value', 'NONE');
#346 = ORIENTED_EDGE ( 'NONE', *, *, #218, .T. ) ;
#347 = CARTESIAN_POINT ( 'NONE',  ( 0.0000000000000000000, 0.2200000000000000011, 0.0000000000000000000 ) ) ;
#348 = ORIENTED_EDGE ( 'NONE', *, *, #377, .F. ) ;
#349 = EDGE_CURVE ( 'NONE', #390, #388, #167, .T. ) ;
#350 = DIRECTION ( 'NONE',  ( 0.0000000000000000000, 1.000000000000000000, 0.0000000000000000000 ) ) ;
#351 = ORIENTED_EDGE ( 'NONE', *, *, #125, .T. ) ;
#352 = COORDINATED_UNIVERSAL_TIME_OFFSET ( 5, 0, .BEHIND. ) ;
#353 = CARTESIAN_POINT ( 'NONE',  ( 5.157385516588113024E-17, 0.2500000000000000000, 0.4211324865405181028 ) ) ;
#354 = PERSON_AND_ORGANIZATION ( #8, #113 ) ;
#355 = CC_DESIGN_APPROVAL ( #277, ( #374 ) ) ;
#356 = EDGE_CURVE ( 'NONE', #320, #273, #7, .T. ) ;
#357 = VERTEX_POINT ( 'NONE', #310 ) ;
#358 = DATE_AND_TIME ( #173, #90 ) ;
#359 = ORIENTED_EDGE ( 'NONE', *, *, #343, .F. ) ;
#360 = MECHANICAL_CONTEXT ( 'NONE', #52, 'mechanical' ) ;
#361 = LINE ( 'NONE', #77, #328 ) ;
#362 = CALENDAR_DATE ( 2020, 27, 7 ) ;
#363 = CIRCLE ( 'NONE', #240, 1.002499999999999947 ) ;
#364 = FACE_OUTER_BOUND ( 'NONE', #250, .T. ) ;
#365 = AXIS2_PLACEMENT_3D ( 'NONE', #314, #94, #121 ) ;
#366 = EDGE_CURVE ( 'NONE', #159, #40, #118, .T. ) ;
#367 = CARTESIAN_POINT ( 'NONE',  ( 0.0000000000000000000, 0.2500000000000000000, 0.0000000000000000000 ) ) ;
#368 = CARTESIAN_POINT ( 'NONE',  ( 0.0000000000000000000, 0.2500000000000000000, 0.0000000000000000000 ) ) ;
#369 = CIRCLE ( 'NONE', #252, 0.9025877767556473863 ) ;
#370 = FACE_OUTER_BOUND ( 'NONE', #231, .T. ) ;
#371 = ORIENTED_EDGE ( 'NONE', *, *, #188, .T. ) ;
#372 = DIRECTION ( 'NONE',  ( -0.0000000000000000000, -1.000000000000000000, -0.0000000000000000000 ) ) ;
#373 = CIRCLE ( 'NONE', #339, 0.1880000000000000282 ) ;
#374 = SECURITY_CLASSIFICATION ( '', '', #262 ) ;
#375 = ORIENTED_EDGE ( 'NONE', *, *, #349, .F. ) ;
#376 = CARTESIAN_POINT ( 'NONE',  ( 5.263443040460604504E-17, 0.2500000000000000000, 0.4211324865405181028 ) ) ;
#377 = EDGE_CURVE ( 'NONE', #254, #171, #23, .T. ) ;
#378 =( NAMED_UNIT ( * ) SI_UNIT ( $, .STERADIAN. ) SOLID_ANGLE_UNIT ( ) );
#379 = ORIENTED_EDGE ( 'NONE', *, *, #343, .T. ) ;
#380 = DIRECTION ( 'NONE',  ( 0.0000000000000000000, 0.0000000000000000000, 1.000000000000000000 ) ) ;
#381 = DIRECTION ( 'NONE',  ( -0.0000000000000000000, 1.000000000000000000, -0.0000000000000000000 ) ) ;
#382 = APPROVAL ( #142, 'UNSPECIFIED' ) ;
#383 = AXIS2_PLACEMENT_3D ( 'NONE', #281, #98, #25 ) ;
#384 = DIRECTION ( 'NONE',  ( 0.0000000000000000000, 0.0000000000000000000, -1.000000000000000000 ) ) ;
#385 = ORIENTED_EDGE ( 'NONE', *, *, #349, .T. ) ;
#386 = CARTESIAN_POINT ( 'NONE',  ( 2.302335982397024478E-17, 0.0000000000000000000, -0.1880000000000000282 ) ) ;
#387 = DIRECTION ( 'NONE',  ( 0.0000000000000000000, 1.000000000000000000, 0.0000000000000000000 ) ) ;
#388 = VERTEX_POINT ( 'NONE', #134 ) ;
#389 = DIRECTION ( 'NONE',  ( 0.0000000000000000000, 0.0000000000000000000, 1.000000000000000000 ) ) ;
#390 = VERTEX_POINT ( 'NONE', #162 ) ;
#391 = VERTEX_POINT ( 'NONE', #58 ) ;
#392 = PERSON_AND_ORGANIZATION ( #8, #113 ) ;
#393 = AXIS2_PLACEMENT_3D ( 'NONE', #238, #204, #74 ) ;
#394 = CARTESIAN_POINT ( 'NONE',  ( 0.0000000000000000000, 0.2500000000000000000, 0.0000000000000000000 ) ) ;
#395 = AXIS2_PLACEMENT_3D ( 'NONE', #16, #276, #248 ) ;
#396 = DIRECTION ( 'NONE',  ( 0.0000000000000000000, 0.0000000000000000000, 1.000000000000000000 ) ) ;
#397 = ADVANCED_FACE ( 'NONE', ( #165, #189 ), #21, .T. ) ;
#398 = CARTESIAN_POINT ( 'NONE',  ( 2.302335982397024478E-17, 0.0000000000000000000, -0.1880000000000000282 ) ) ;
#399 = EDGE_CURVE ( 'NONE', #402, #391, #369, .T. ) ;
#400 = CC_DESIGN_SECURITY_CLASSIFICATION ( #374, ( #322 ) ) ;
#401 = CARTESIAN_POINT ( 'NONE',  ( 0.0000000000000000000, 0.2500000000000000000, 0.0000000000000000000 ) ) ;
#402 = VERTEX_POINT ( 'NONE', #195 ) ;
#403 = EDGE_CURVE ( 'NONE', #203, #293, #241, .T. ) ;
#404 = DIRECTION ( 'NONE',  ( 0.0000000000000000000, 0.0000000000000000000, 1.000000000000000000 ) ) ;
#405 = ORIENTED_EDGE ( 'NONE', *, *, #287, .F. ) ;
#406 = DIRECTION ( 'NONE',  ( 0.0000000000000000000, 1.000000000000000000, 0.0000000000000000000 ) ) ;
#407 = DIRECTION ( 'NONE',  ( 0.0000000000000000000, 0.0000000000000000000, 1.000000000000000000 ) ) ;
#408 = CONICAL_SURFACE ( 'NONE', #308, 0.8725877767556469156, 0.4363323129985795523 ) ;
#409 = MANIFOLD_SOLID_BREP ( 'Chamfer2', #5 ) ;
#410 = CARTESIAN_POINT ( 'NONE',  ( 0.0000000000000000000, 0.2200000000000000011, 0.0000000000000000000 ) ) ;
#411 = CARTESIAN_POINT ( 'NONE',  ( 0.0000000000000000000, 0.0000000000000000000, 0.0000000000000000000 ) ) ;
#412 = ORIENTED_EDGE ( 'NONE', *, *, #403, .T. ) ;
ENDSEC;
END-ISO-10303-21;
